Acordes de Guitarra » H »Hillsong United » One Way (Tab)
  • Letra y Acordes
    intro: B - G#m - F# - E
    
    Verso:
     B                       G#m
    Mi vida rindo a tus pies, te necesito solo a ti
    F#                                  E
    Te busco siempre, y siempre estas ahí
     B
    Solo en ti yo  buscare,
    G#m
    Pues eres todo para mí,
      F#                          E
    Me rindo por completo hoy a ti.
    
    Coro:
    
      B           F#              G#m                   E
    //es Cristo el camino,  viviremos para el por siempre//
    
    (G#m - E)(x2)
    
  • Letra y Acordes
    A                        F#m
    A tus pies rindo mi ser, solo en ti puedo creer
    E                     D
    Siempre estas en mi nesesidad.
    A                     F#m
    Mi único Señor y Rey, solo tu calmas mi sed.
    E                       D
    Todo lo que soy es por ti-i
    
       A     E         F#m           D
    //solo Cristo, el motivo por el cual yo vivo
      A    E        F#m            D
    Solo Cristo, el camino por el cual yo sigo//
    
     A                     F#m
    Se que no me dejaras. Estas en todo lugar
    E                                 D
    Tu gracia esta profundamente en mi-i
    
       A    E          F#m           D
    
  • Letra y Acordes
    intro: B - G#m - F# - E
    
    Verso:
     B                        G#m
    Mi vida dejo atus pies, eres vital para mi ser
    F#                                   E
    Miro hacia el cielo y siempre estas ahí
    B
    En ambición te busco ooh  Dios
    G#m
    Mis ojos pongo en ti señor
      F#                       E
    En  humildad me rindo ante ti .
    
    Coro:
    
      B           F#      G#m             E
    jesus señor solo a ti yo rendiré mi vida
     B           F#        G#m             E
    Jesus mi Dios solo a ti yo rendiré mi vida
    
  • Letra y Acordes
    Intro: G Em D C
    
    Verso:
    
    G
    Rindo mi vida ante ti
    Em
    Te necesito sólo a ti
    D
    se que al buscarte
                 C
    siempre te hallaré
    G
    Nunca cambiaras jamas
    Em
    ayer y hoy eres igual
    D                    C
    Rey de reyes siempre reinas//
    
    Coro:
    
  • Tablatura
    ------------------|
    ------------------|
    -8----13---11--9--|
    ------------------|
    -6----11---9---7--|
    ------------------|
    B/D# G#m F# E
    
    Coro:
    ------------------|
    ------------5-----|
    -4--3---4---4-----|
    -4--4---4---2-----|
    -2--2---2---------|
    ------------------|
    B F# G#m E
    
    Pre-verso 2:
    ------------------------|
    ------------------------|
    
  • Tab p/Bajo
    drum beat.
    G||------------------|--------------------------|
    D||------------------|--------------------------|
    A||------------------|--------------------------|
    E||------------------|--7--7--7--7--7--7--7--7--|
    
    
    --------------------------|--------------------------|
    --------------------------|--------------------------|
    --------------------------|--------------------------|
    --7--7--7--7--7--7--7--7--|--4--4--4--4--4--4--4--4--|
    
    ----------------------|--------------------------|
    ----------------------|--------------------------|
    --7----6----4----6----|--------------------------|
    ----------------------|--2--2--2--2--2--2--2--2--|
    
    --------------------------|--------------------------|
    --------------------------|--------------------------|
    --------------------------|--------------------------|
    --2--2--2--2--2--2--2--2--|--0--0--0--0--0--0--0--0--|
    
    --------------------------|--------------------------|
    --------------------------|--------------------------|
    --------------------------|---
  • +
    ¡Colabora con nosotros!
    Envíanos tu versión de esta canción

Letra de One Way
Verso:
Mi vida rindo a tus pies, te necesito solo a ti
Te busco siempre, y siempre estas ahí
Pues eres todo para mí,
Me rindo por completo hoy a ti.
//es Cristo el camino, viviremos para el por siempre//
(G#m - E)(x2)
Siempre siempre estas ahí, en todas partes tu estas
Tu gracia abunda fuerte en mi ser
Nunca nunca cambiaras, ayer y hoy eres igual
Eternamente y siempre sin final
////es Cristo el camino, viviremos para el por siempre////
////Camino verdad y vida eres tu
Por fe andamos no por vista oh Dios
Vivimos para ti////
////es Cristo el camino, viviremos para el por siempre////
no le puse "un camino" po k se dan oportunidades a otros.
si no k tienen k saber k Cristo es el camino.



© LaCuerda.net · aviso legal · privacidad · contacto