Acordes de Guitarra » H »Hillsong United » No reason to hide (Tab)

No reason to hide
Hillsong United

  • Letra y Acordes
                    Ab
    Nada hay que perder
                       Db
    Nada hay que esconder
                       Fm
    La raspuesta esta en Jesus
                         Db
    Es tiempo de mostrar su luz
    
                    Ab
    Tu gloria declararé
                      Db
    Tu nombre quiero exaltar
                   Fm
    Para mi lo eres tu
                 Db
    Eres unico Jesus
    
    CORO:
    
    
  • Tablatura
    ------------------------------------
    ------------------------11-13-------
    --13---------------13-13------13----
    ------------------------------------
    ------------------------------------
    ------------------------------------
    
    octavas
    ------------------------
    ------------------------
    --13-12--8--13-12--6----
    ------------------------
    --11-10--6--11-10--4----
    ------------------------
    
    ------------------------
    ------------------------
    --13-12--8--6-----------
    ------------------------
    --11-10--6--4-----------
    
  • +
    ¡Colabora con nosotros!
    Envíanos tu versión de esta canción

Letra de No reason to hide
Nada hay que perder
Nada hay que esconder
La raspuesta esta en Jesus
Es tiempo de mostrar su luz
Tu gloria declararé
Tu nombre quiero exaltar
Para mi lo eres tu
Eres unico Jesus
Woah
vivo estas, soy libre en ti
Eres todo Dios
Todo para mi
Woah
Por tu amor yo creo en ti
Eres todo Dios
Todo para mi
VERSO 2:
El tiempo no hay que perder
Llego la hora de actuar
Nos espera esta ciudad
Con su luz vamos a brillar
Tu gloria declarare
Tu nombre quiero exaltar
Para mi todo eres Jesus
Eres todo para mi
Wo-ah
Wo-ah
Wo-ah
No hay nadie como tú
nada nos puede separar de ti
De tu amor
No hay nadie como tú
Nada nos puede separar
De tu amor
TAG:
Nada puede separarnos
Nada puede interponerse entre nosotros
Nada puede separarnos ahora
Ps esta es i primera letra q subo espero q les sea de
bendicion a todos y mando un saludo ala iglesia emmanuel
de la zona escolar y a Daniela moreno



© LaCuerda.net · aviso legal · privacidad · contacto