Acordes de Guitarra » H »Hillsong United » His Love (Tab)

His Love
Hillsong United

Letras, Acordes y Tabs para Guitarra, Bajo y Ukulele

  • Intro: F#m  A  Emaj9
    
    Emaj9
    Tu luz esta en mi
    Amaj9
    Brilla sobre mi
                  Emaj9
    Ya no hay tinieblas
    
    Emaj9
    El cielo sobre mi
    Amaj9
    Rebosa sobre mi
               Emaj9
    Me inunda con amor
    
    PRE-CORO
    F#m7         B6
    Rebosando estoy
    F#m7         B6
    
  • INTRO:
    
    |--------------------------------------------------------------|
    |----------------------------4-4-4-4--2---7-7-7-7-6—2-4--------|
    |--------------------4-4-4-4------------4---------------4-2----|
    |---2-2-2-2--5-5-5-5-------------------------------------------|
    
    
    |--------------------------------------------------------------|
    |--------------------------------------------------------------|
    |-7-7-7-7-7-7-7--7--7-7-7-7-7-7-7--7---7-7-7-7-7-7---7---7-----|
    |--------------7--7---------------7--7-------------7---7-------|
    
    VERSO:
    
    |--------------------------------------------------------------|
    |--------------------------------------------------------------|
    |--7-7-7-7-7-7---7---7--7-7-7-7-7-7--7---7---------------------|
    |--------------7---7---------------7---7---7-------------------|
    
    
    
    |--------------------------------------------------------------|
    |--------------------------------------------------------------|
    |--------------------------------------------------------------|
    |-
  • +
    ¡Colabora con nosotros!
    Envíanos tu versión de esta canción

Letra de His Love
Tu luz esta en mi
Brilla sobre mi
Ya no hay tinieblas
El cielo sobre mi
Rebosa sobre mi
Me inunda con amor
PRE-CORO
Rebosando estoy
Rebosando estoy
Alabale de corazón
Alabale
Por siempre es fiel
Me cubres con su amor
Con su amor
Me cubres con su amor
Con su amor
Tu luz brillo en mi
Cambio la oscuridad
No habrá tinieblas nunca mas
Ahora puedo ver
Un dia nuevo despertar
La luz de un nuevo amanecer




[His Love chords][His Love cifra]
© LaCuerda.net · aviso legal · privacidad · es · en · pt · contacto
DINAMICO