Acordes de Guitarra » H »Hillsong United » Generación de Danza (Tab)

Generación de Danza
Hillsong United

Letras, Acordes y Tabs para Guitarra, Bajo y Ukulele

  • ESTA ROLA ESTA MUY CHIDA
    Y FACIL, SOLO DENLE RITMO A LA INTRO
    BAJO ESTANDAR, E, A, D, G
    ENTRA PRIMERO LA  GUITARRA, LUEGO LA BATERIA Y DESPUES EL BAJO
    INTRO:
    E:------7-----------7------------------
    A:---5-----5----5----5---5/9999--------
    D:-------------------------------------
    G:-------------------------------------
    
    E:-7---5---7—7---5---5---5/10101010
    A:---------------------------------
    D:---------------------------------
    G:---------------------------------
    
    
    TU AMOR ME ENSEÑA A DANZAR
    E:------7-----------7------------------
    A:---5-----5----5----5---5/9999---
    D:--------------------------------------
    G:---------------------------------------
    
    A CELEBRAR CON EL CORAZON
    E:--7---5---7—7---5---5---5/10101010---
    A:------------------------------------------------
    D:------------------------------------------------
    G:------------------------------------------------
    
    G                      C
    Y CON DANZAS DAREMOS GRACIAS
    
    AKI NUEVAMENTE SE HACE LO MISMO
    K LO ANTERIOR SOLAMENTE CAMBIA LA LETRA
  • +
    ¡Colabora con nosotros!
    Envíanos tu versión de esta canción






[Generación de Danza chords][Generación de Danza cifra]
© LaCuerda.net · aviso legal · privacidad · es · en · pt · contacto
DINAMICO