Acordes de Guitarra » H »Hillsong United » For who you are (Tab)

For who you are
Hillsong United

Letras, Acordes y Tabs para Guitarra, Bajo y Ukulele

  • Verso: B - E  - Bm E
    
    B
    Estando aquí, en tu presencia
    E
    Pensaba en las cosas que tú  me das
    B
    Y con paciencia, esperar
    E                      G#m
    Solo para oírte  otra vez
    
    G#m    F          E                    F#
    Santo, Grande, fiel por la eternidad
    G#m            F           E
    Salvador, Sanador, amigo y Redentor
    
    
    Coro:
                    B
    Por quién Eres  tengo que adorar
    
  • TABS.PARA GUITARRA
    CANCION:
    For who you are.( HILLSONG )
    Intro/Verso (enmudece la cuerda de B):
    ---7------------------------------
    --------0-0-0---0--0-0-0--0-0-0---
    -8---8--------------------------8-
    ----------------------------------
    ----------------------------------
    ----------------------------------
    
    ---7------------------------------
    --------0-0-0---0--0-0-0--0-0-0---
    -9---9----------------------------
    ----------------------------------
    ----------------------------------
    ----------------------------------
    
    PRE-Coro (con la palma de tu mano enmudece las cuerdas):
    -----------------|-----------------
    -------12-----12-|-------11-----11-
    ----13-----13----|----11-----11----
    -13--------------|-11--------------
    -----------------|-----------------
    -----------------|-----------------
    
    ---------------|-----------------
    -------9-----9-|-------11-----11-
    ----9-----9----|----11-----11----
    -9-------------|-11--------------
    ---------------|-----------------
    ---------------|-----------------
    
    ---
  • +
    ¡Colabora con nosotros!
    Envíanos tu versión de esta canción

Letra de For who you are
Estando aquí, en tu presencia
Pensaba en las cosas que tú me das
Y con paciencia, esperar
Santo, Grande, fiel por la eternidad
Salvador, Sanador, amigo y Redentor
Por quién Eres tengo que adorar
Por quién Eres tengo que adorar
Por quién Eres tengo que adorar
Jesús




[For who you are chords][For who you are cifra]
© LaCuerda.net · aviso legal · privacidad · es · en · pt · contacto
DINAMICO