Acordes de Guitarra » H »Hillsong United » En tu Luz (Tab)

En tu Luz
Hillsong United

Letras, Acordes y Tabs para Guitarra, Bajo y Ukulele

  • E
    Tan consumidos por tu amor
    E                                C#m                   A
    Que hemos perdido el sentido de nuestro alrededooor.......
    
    
    E
    Ya nada nos puede deslumbrar
    E                         C#m                A
    Nada en este mundo se te puede comparar... Jesus
    
    Pre-coro
    
         B         C#m         B          A
     ////Nadie como tu////  // Nadie como tu//
    
    Coro
    E
    Jesús eres nuestra herencia
    B                    A
    
  • e -----------------------         ------------------------------
    a -----------------------         ------------------------------
    d -----------------------  x3     ------------------------------
    g -----------------------         ------------------------------
    b -5-5-5-----------------         -5-7-7-7-5-5-5-------4-4-4-5v-
    e ----7-7-7-5-5-5-4-4-4-4         ---------------4-4-4----------
    
    Esto se toca dos veces, pero a la segunda en vez de terminar
    con la nota de E se toca el acorde y con eso inicia la letra.
    E
    Tan consumidos por tu amor, que hemos perdido
                  C#m            A
    el sentido de nuestro alrededor.
    E
    Ya nada nos puede deslumbrar nada en este mundo
          C#m                A
    se te puede comparar   Jesús.
    
    Despues una de las guitarras toca las quintas con un efecto de
    distorcion y cortante para el precoro:
    
  • ESTA ROLA ESTA MUI CHIDA
    SOLO CHEKA LOS CAMBIOS A TIEMPO
    Y SE T HARA FACIL
    ASI K AHI LES VA
    
    INTRO:
    E:-------------7(X16)----5(X16)--------------7(X8)-----------------
    A:---7(X16)--------------------------4(X8)-------------------7-----
    D:-----------------------------------------------------------------
    G:-----------------------------------------------------------------
    VERSO
    TAN CONSUMIDOS POR TU AMOR
     QUE HEMOS PERDIDO EL SENTIDO
    DE NUESTRO ALREDEDOR
    
    Aki va lo siguiente:
    E:----------------------6---6---6---6--------
    A:---7/4---4---4---4--------------------7----
    D:-------------------------------------------
    G:-------------------------------------------
    YA NADA NOS PUEDE DESLUMBRAR
    NADA EN ESTE MUNDO SE TE PUEDE COMPARAR
    JESUS
    Y SE REPITE OTRA VEZ LO DE ARRIBA:
    E:----------------------6---6---6---6--------
    A:---7/4---4---4---4--------------------7----
    D:-------------------------------------------
    G:-------------------------------------------
    
    NADIE COMO TU……
    E:---7----9-----7----5---
  • +
    ¡Colabora con nosotros!
    Envíanos tu versión de esta canción

Letra de En tu Luz
Tan consumidos por tu amor
Que hemos perdido el sentido de nuestro alrededooor.......
Ya nada nos puede deslumbrar
Nada en este mundo se te puede comparar... Jesus
Pre-coro
////Nadie como tu//// // Nadie como tu//
Jesús eres nuestra herencia
Mas que suficiente....
Nuestro redentor y rey
Jesús muestra tus caminos....
Y andaremos en tu luz
A la luz de tu verdad
(Vuelve a empezar todo)
En tu luz vemos la luz,
en tu luz vemos la luz,
en tu luz vemos la luz




[En tu Luz chords][En tu Luz cifra]
© LaCuerda.net · aviso legal · privacidad · es · en · pt · contacto
DINAMICO