Acordes de Guitarra » H »Hillsong United » Desert Song (Tab)

Desert Song
Hillsong United

Letras, Acordes y Tabs para Guitarra, Bajo y Ukulele

  • Am G F C Am G F F
    
    Am         G         F    C
    mi oracion en el desierto
    Am         G       F  C
    cuando se seca mi ser
    Am         G         F    C
    es mi clamor en mi necesidad
    Am          G          F
    mi Dios es quien provera
    
    Am          G          F   C
    Mi oracion cerca del fuego
    Am          G        F  C
    en tiempos de debilidad
    Am        G          F       C
    hay una fe mas valiosa quel sol
         Am           G        F
    Es Dios quien restaura mi ser
    
    
  • Intro
    --------------------------------------------
    -15s14--------------------------------------
    --------14s16--11--9s14---11----------------
    -12s11------------------------14s7-11s12s9--
    --------12s14--9---7s12---9-----------------
    ------------------------------12s5--9s10s7--
    
    --------------------------------------------
    -15s14--------------------------------------
    --------14s16--11--9s14--11---9s14--16------
    -12s11--------------------------------------
    --------12s14--9---7s12--9----7s12--14------
    --------------------------------------------
    
    
    Verso
    Arpegiar:
    -----------------------------7----------
    ---7-------------7-------7-----------5--
    -7---7-------7-5---7---7---7-------7----
    -------7---7---------------------7------
    ----------------------------------------
    ----------------------------------------
    
    -------0------------10----9--------
    ---7--------7----------------------
    -7---7----7----9s11----11----(x3)--
    -----------------------------------
    -----------------------------------
    --------
  • +
    ¡Colabora con nosotros!
    Envíanos tu versión de esta canción

Letra de Desert Song
mi oracion en el desierto
cuando se seca mi ser
es mi clamor en mi necesidad
mi Dios es quien provera
Mi oracion cerca del fuego
en tiempos de debilidad
hay una fe mas valiosa quel sol
Es Dios quien restaura mi ser
Y con mi ser adorare
nada me impide estar cerca de el
me gozare declarare
Que mi victoria se encuentra en el
mi oracion en batalla
el triunfo lo veo llegar
voy conquistando junto a mi señor
firme en su promesa estare
//cualquier lugar cualquier momento
tu estaras yo tengo porque cantar
yo tengo porque adorarte//
mi oracion en cosecha
cuando mi vida esta bien
se que soy lleno y me vaciare
tu ayuda yo compartire




[Desert Song chords][Desert Song cifra]
© LaCuerda.net · aviso legal · privacidad · es · en · pt · contacto
DINAMICO