Tablatura para Bajo de Héroes del Silencio: Olvidado
Conexión · Inscripción
Letras y Acordes
Pantalla Completa
Imprimir
Versión Texto
Añadir Favorito
Otras Versiones

Mostrar Diagramas
Desfile Automático
Formato del Texto


Olvidado(BAJ)

Héroes del Silencio

calidad:
hero0504
AUTOR: Pedro Andreu, Joaquin Cardiel, E. De Landazuri Ortiz, Janet Valdivia
ALBUM: El Mar No Cesa
Enviado por nOoKIE*
Bajo



                                                                        
G||------------------|------------------------|------------------------|
D||------------------|------------------------|------------------------|
A||------------------|--2----0-------------0--|--2----0-------------0--|
E||------------------|----------2----0--2-----|----------2----0--2-----|


                                                                           
------------------------|------------------------|------------------------|
--0---------------------|--0---------------------|------------------------|
-------2--0-------0--2--|-------2--0-------0-----|--2----0-------------0--|
---------------3--------|---------------3-----2--|----------2----0--2-----|


                                                                           
------------------------|------------------------|------------------------|
------------------------|--0---------------------|--0---------------------|
--2----0-------------0--|-------2--0-------0--2--|-------2--0-------0-----|
----------2----0--2-----|---------------3--------|---------------3-----2--|


                                                                           
------------------------|------------------------|------------------------|
------------------------|------------------------|--0---------------------|
--2----0-------------0--|--2----0-------------0--|-------2--0-------0--2--|
----------2----0--2-----|----------2----0--2-----|---------------3--------|


                                                                           
------------------------|------------------------|------------------------|
--0---------------------|------------------------|------------------------|
-------2--0-------0-----|--2----0-------------0--|--2----0-------------0--|
---------------3-----2--|----------2----0--2-----|----------2----0--2-----|


                                                                           
------------------------|------------------------|------------------------|
--0---------------------|--0---------------------|------------------------|
-------2--0-------0--2--|-------2--0-------0-----|--2----0-------------0--|
---------------3--------|---------------3-----2--|----------2----0--2-----|


                                                                           
------------------------|------------------------|------------------------|
------------------------|--0---------------------|--0---------------------|
--2----0-------------0--|-------2--0-------0--2--|-------2--0-------0-----|
----------2----0--2-----|---------------3--------|---------------3-----2--|


                                                                           
------------------------|------------------------|------------------------|
------------------------|------------------------|--0---------------------|
--2----0-------------0--|--2----0-------------0--|-------2--0-------0--2--|
----------2----0--2-----|----------2----0--2-----|---------------3--------|


                                                                           
------------------------|------------------------|------------------------|
--0---------------------|------------------------|------------------------|
-------2--0-------0-----|--2----0-------------0--|--2----0-------------0--|
---------------3-----2--|----------2----0--2-----|----------2----0--2-----|


                                                                           
------------------------|------------------------|------------------------|
--0---------------------|--0---------------------|------------------------|
-------2--0-------0--2--|-------2--0-------0-----|--2----0-------------0--|
---------------3--------|---------------3-----2--|----------2----0--2-----|


                                                                           
------------------------|------------------------|------------------------|
------------------------|--0---------------------|--0---------------------|
--2----0-------------0--|-------2--0-------0--2--|-------2--0-------0-----|
----------2----0--2-----|---------------3--------|---------------3-----2--|


                                                                           
------------------------|------------------------|------------------------|
------------------------|------------------------|--0---------------------|
--2----0-------------0--|--2----0-------------0--|-------2--0-------0--2--|
----------2----0--2-----|----------2----0--2-----|---------------3--------|


                                                                           
------------------------|------------------------|------------------------|
--0---------------------|------------------------|------------------------|
-------2--0-------0-----|--2----0-------------0--|--2----0-------------0--|
---------------3-----2--|----------2----0--2-----|----------2----0--2-----|


                                                                           
------------------------|------------------------|------------------------|
--0---------------------|--0---------------------|------------------------|
-------2--0-------0--2--|-------2--0-------0-----|--2----0-------------0--|
---------------3--------|---------------3-----2--|----------2----0--2-----|


                                                                           
------------------------|------------------------|------------------------|
------------------------|--0---------------------|--0---------------------|
--2----0-------------0--|-------2--0-------0--2--|-------2--0-------0-----|
----------2----0--2-----|---------------3--------|---------------3-----2--|


                                                                           
------------------------|------------------------|------------------------|
------------------------|------------------------|--0---------------------|
--2----0-------------0--|--2----0-------------0--|-------2--0-------0--2--|
----------2----0--2-----|----------2----0--2-----|---------------3--------|


                                                                           
------------------------|------------------------|------------------------|
--0---------------------|------------------------|------------------------|
-------2--0-------0-----|--2----0-------------0--|--2----0-------------0--|
---------------3-----2--|----------2----0--2-----|----------2----0--2-----|


                                                                           
------------------------|------------------------|------------------------|
--0---------------------|--0---------------------|------------------------|
-------2--0-------0--2--|-------2--0-------0-----|--2----0-------------0--|
---------------3--------|---------------3-----2--|----------2----0--2-----|


                                                                           
------------------------|------------------------|------------------------|
------------------------|--0---------------------|--0---------------------|
--2----0-------------0--|-------2--0-------0--2--|-------2--0-------0-----|
----------2----0--2-----|---------------3--------|---------------3-----2--|


                                                      
--------------------------|--------------------------|
--------------------------|--------------------------|
--2--2--2--2--2--2--2--2--|--2--2--2--2--2--2--2--2--|
--------------------------|--------------------------|


                                                      
--------------------------|--------------------------|
--0--0--0--0--0--0--0--0--|--0--0--0--0--0--0--0--0--|
--------------------------|--------------------------|
--------------------------|--------------------------|


                                                      
--------------------------|--------------------------|
--------------------------|--------------------------|
--2--2--2--2--2--2--2--2--|--2--2--2--2--2--2--2--2--|
--------------------------|--------------------------|


                                                                               
--------------------------|--------------------------|------------------------|
--0--0--0--0--0--0--0--0--|--0--0--0--0--0--0--0--0--|------------------------|
--------------------------|--------------------------|--2----0-------------0--|
--------------------------|--------------------------|----------2----0--2-----|


                                                                           
------------------------|------------------------|------------------------|
------------------------|--0---------------------|--0---------------------|
--2----0-------------0--|-------2--0-------0--2--|-------2--0-------0-----|
----------2----0--2-----|---------------3--------|---------------3-----2--|


                                                                           
------------------------|------------------------|------------------------|
------------------------|------------------------|--0---------------------|
--2----0-------------0--|--2----0-------------0--|-------2--0-------0--2--|
----------2----0--2-----|----------2----0--2-----|---------------3--------|


                                                                           
------------------------|------------------------|------------------------|
--0---------------------|------------------------|------------------------|
-------2--0-------0-----|--2----0-------------0--|--2----0-------------0--|
---------------3-----2--|----------2----0--2-----|----------2----0--2-----|


                                                                           
------------------------|------------------------|------------------------|
--0---------------------|--0---------------------|------------------------|
-------2--0-------0--2--|-------2--0-------0-----|--2----0-------------0--|
---------------3--------|---------------3-----2--|----------2----0--2-----|


                                                                           
------------------------|------------------------|------------------------|
------------------------|--0---------------------|--0---------------------|
--2----0-------------0--|-------2--0-------0--2--|-------2--0-------0-----|
----------2----0--2-----|---------------3--------|---------------3-----2--|


                                                                           
------------------------|------------------------|------------------------|
------------------------|------------------------|--0---------------------|
--2----0-------------0--|--2----0-------------0--|-------2--0-------0--2--|
----------2----0--2-----|----------2----0--2-----|---------------3--------|


                                                                           
------------------------|------------------------|------------------------|
--0---------------------|------------------------|------------------------|
-------2--0-------0-----|--2----0-------------0--|--2----0-------------0--|
---------------3-----2--|----------2----0--2-----|----------2----0--2-----|


                                                                           
------------------------|------------------------|------------------------|
--0---------------------|--0---------------------|------------------------|
-------2--0-------0--2--|-------2--0-------0-----|--2----0-------------0--|
---------------3--------|---------------3-----2--|----------2----0--2-----|


                                                                           
------------------------|------------------------|------------------------|
------------------------|--0---------------------|--0---------------------|
--2----0-------------0--|-------2--0-------0--2--|-------2--0-------0-----|
----------2----0--2-----|---------------3--------|---------------3-----2--|


                                                                           
------------------------|------------------------|------------------------|
------------------------|------------------------|--0---------------------|
--2----0-------------0--|--2----0-------------0--|-------2--0-------0--2--|
----------2----0--2-----|----------2----0--2-----|---------------3--------|


                                                                               
------------------------|--------------------------|--------------------------|
--0---------------------|--------------------------|--------------------------|
-------2--0-------0-----|--2--2--2--2--2--2--2--2--|--2--2--2--2--2--2--2--2--|
---------------3-----2--|--------------------------|--------------------------|


                                                      
--------------------------|--------------------------|
--0--0--0--0--0--0--0--0--|--0--0--0--0--0--0--0--0--|
--------------------------|--------------------------|
--------------------------|--------------------------|


                                                      
--------------------------|--------------------------|
--------------------------|--------------------------|
--2--2--2--2--2--2--2--2--|--2--2--2--2--2--2--2--2--|
--------------------------|--------------------------|


                                                                               
--------------------------|--------------------------|------------------------|
--0--0--0--0--0--0--0--0--|--0--0--0--0--0--0--0--0--|------------------------|
--------------------------|--------------------------|--2----0-------------0--|
--------------------------|--------------------------|----------2----0--2-----|


                                                                           
------------------------|------------------------|------------------------|
------------------------|--0---------------------|--0---------------------|
--2----0-------------0--|-------2--0-------0--2--|-------2--0-------0-----|
----------2----0--2-----|---------------3--------|---------------3-----2--|


                                                                           
------------------------|------------------------|------------------------|
------------------------|------------------------|--0---------------------|
--2----0-------------0--|--2----0-------------0--|-------2--0-------0--2--|
----------2----0--2-----|----------2----0--2-----|---------------3--------|


                                                                               
------------------------|--------------------------|--------------------------|
--0---------------------|--------------------------|--------------------------|
-------2--0-------0-----|--2--2--2--2--2--2--2--2--|--2--2--2--2--2--2--2--2--|
---------------3-----2--|--------------------------|--------------------------|


                                                      
--------------------------|--------------------------|
--0--0--0--0--0--0--0--0--|--0--0--0--0--0--0--0--0--|
--------------------------|--------------------------|
--------------------------|--------------------------|


                                                      
--------------------------|--------------------------|
--------------------------|--------------------------|
--2--2--2--2--2--2--2--2--|--2--2--2--2--2--2--2--2--|
--------------------------|--------------------------|


                                                                          
--------------------------|--------------------------|-------------------|
--0--0--0--0--0--0--0--0--|--0--0--0--0--0--0--0--0--|--0----------------|
--------------------------|--------------------------|-------------------|
--------------------------|--------------------------|-------------------|


                                       
------------------|------------------||
------------------|------------------||
------------------|------------------||
------------------|------------------||
Este fichero es trabajo propio de su transcriptor y representa su interpretación personal de la canción. El material contenido en esta página es
para exclusivo uso privado, por lo que se prohibe su reproducción o retransmisión, así como su uso para fines comerciales.

© LaCuerda.net · Aviso Legal · Privacidad