Acordes de Guitarra » H »Hermética » Craneo candente (Tab)

Craneo candente
Hermética

Letras, Notas, Punteos, Tablaturas y Acordes de Guitarra (Tabs & Chords)

  • Tablatura
    Intro:
    |--------------------------------------------------------|
    |--------------------------------------------------------|
    |--------------------------------------------------------|
    |-------------------9-----9------------------10-10-9-7---|
    |-------------------7--9--7--9----------------8--8-7-5---|
    |---0--0-0-0--0-0-0----7-----7-0--0-0-0--0-0-0-----------|
    
    |--------------------------------------------------------------| 
    |--------------------------------------------------------------|
    |--------------------------------------------------------------|
    |--------------------9-----9-----------------------------8-----| x2
    |--------------------7--9--7--9-----------------8--9--8--6-----|
    |---0--0-0-0--0-0-0-----7-----7-0--0-0-0--0-0-0-6--7--6--------|
    
    
    |-----------------------------------------------|
    |-----------------------------------------------|
    |-----------------------------------------------| x3
    |---------12-------11--------10--------9--------|
    |---------10-------
  • Tablatura
         MI             MI  SI MI SI  MI             FA  FA MI RE   (acordes 5ta)
    e|------------------------------------------------------------|
    B|------------------------------------------------------------|
    G|------------------------------------------------------------|
    D|------------------(9)----9-------------------(10)--10-9-7---|
    A|------------------(7)-9--7--9-----------------(8)---8-7-5---|
    E|---0--0-0-0--0-0-0----7-----7-0--0-0-0--0-0-0---------------|
    PM   ...............            ...............
    
    BAJO:
    G|--------------------------------------------------------------| 
    D|--------------------------------------------------------------|
    A|-------------------(7)---7--------------------(8)---8-7--5----|
    E|---0--0-0-0--0-0-0----7-----7-0--0-0-0--0-0-0-----------------| 
    
    Sigue asi....
    
    GUITARRA:
          MI             MI  SI MI SI  MI              SIb SI SIb MIb
    E|-----------------------------------------------------------------| 
    
  • Tablatura
    '...De Esta Tierra Infecta Sin Sentido Y Sin Razon...'
    
    SOLO
    
    |--------------------------------------------------------------------------------------------------------------------|
    |-12t-8-10t-8-12t-8-13t-8-12t-8-10t-8-12t-8-13t-8-12t-8-10t-8-12t-8-13t-8-12t-8-10t-8-12t---8-7*-7-7-8-7-5---10ful---|
    |--------------------------------------------------------------------------------------------------------------------|
    |--------------------------------------------------------------------------------------------------------------------|
    |--------------------------------------------------------------------------------------------------------------------|
    |--------------------------------------------------------------------------------------------------------------------|
    
    |---------------------------------------------------------------------------------------------------|
    |--10-8-10*-8-7-8*---8*--8-7-8-7-----------7--------------------------------------------------------|
    |-----
  • Tab p/Bajo
    Intro.
    G|--------------------------------------------------------------| 
    D|--------------------------------------------------------------|
    A|-------------------(7)---7--------------------(8)---8-7--5----|
    E|---0--0-0-0--0-0-0----7-----7-0--0-0-0--0-0-0-----------------| 
    
    G|--------------------------------------------------------------| 
    D|--------------------------------------------------------------|
    A|-------------------(7)---7--------------------------------6---|X3
    E|---0--0-0-0--0-0-0----7-----7-0--0-0-0--0-0-0----(6)-7-6------| 
    
    G|----|----|----|----||----|----|----|-------||-|-|-|-||---|---|------------------------------| 
    D|----|----|----|----||----|----|----|-------||-|-|-|-||---|---|------------------------------|
    A|----|----|----|----||----|----|----|-----8-||-|-|-|-||---|---|-----8-7-5-----8-7-5---------/|
    E|-0--|-0--|-0--|-0--||-0--|-0--|-0--|-7-8---||0|0|0|0||-0-|-0-|8-7-5-----8-7-5-----8-7-5-(3)-|
    
    
                                                     Fill
  • +
    ¡Colabora con nosotros!
    Envíanos tu versión de esta canción





© LaCuerda.net · Aviso Legal · Privacidad
DINAMICO