Tablatura para Guitarra de Hermética: Craneo candente
Conexión · Inscripción
Letras y Acordes
Pantalla Completa
Imprimir
Versión Texto
Añadir Favorito
Otras Versiones

Mostrar Diagramas
Desfile Automático
Manipular Acordes
Formato del Texto


Craneo candente(TAB)

Hermética

calidad:
hrmt0244
AUTOR: Hermetica
ALBUM: Hermetica
Enviado por Tanito_v8
'...De Esta Tierra Infecta Sin Sentido Y Sin Razon...'

SOLO

|--------------------------------------------------------------------------------------------------------------------|
|-12t-8-10t-8-12t-8-13t-8-12t-8-10t-8-12t-8-13t-8-12t-8-10t-8-12t-8-13t-8-12t-8-10t-8-12t---8-7*-7-7-8-7-5---10ful---|
|--------------------------------------------------------------------------------------------------------------------|
|--------------------------------------------------------------------------------------------------------------------|
|--------------------------------------------------------------------------------------------------------------------|
|--------------------------------------------------------------------------------------------------------------------|

|---------------------------------------------------------------------------------------------------|
|--10-8-10*-8-7-8*---8*--8-7-8-7-----------7--------------------------------------------------------|
|--------------------------------9-9-7-7------9-9-7-5-5-7-5-4---------------------------------------|
|--------------------------------------------------------------------5-7-----5-7------7-9-----7-9-9-|
|---------------------------------------------------------------7--7-----7-7------9-9-----9-9-------|
|---------------------------------------------------------------------------------------------------|

|---------------------------------------------------------------|
|----------------------10ful---10ful---10-8---7----8-7------8---|
|-7-9-----9ful--9-7-9-----------------------------------9-------|
|-----9-9-------------------------------------------------------|
|---------------------------------------------------------------|
|---------------------------------------------------------------|

|---------------------------------------------------------------------------------------------------------------7*--|
|-8-8-7-7-5-5-8-8-7-7-5-5-7-7-8-8-5-5-8-8-7-7-5-5-10-10-8-8-7-7-8-7-5------10ful---10-8-10----8-10-8----7-8-7-------|
|-------------------------------------------------------------------------------------------------------------------|
|-------------------------------------------------------------------------------------------------------------------|
|-------------------------------------------------------------------------------------------------------------------|
|-------------------------------------------------------------------------------------------------------------------|

|-10-8-7----8-7----7-------------------------------------------------------------------------------------------------------|
|--------10-----10----10-8-7-10-8-7---8--7----7-8----------------------------8---7--7-8-7---------7--8-10-8--7---7--8------|
|-----------------------------------9------9-------9ful-9-7-9--------------7--------------------9-----------------------9--|
|------------------------------------------------------------------------9-------------------10----------------------------|
|------------------------------------------------------------------10------------------------------------------------------|
|--------------------------------------------------------------------------------------------------------------------------|

|-10-8-7------8-7-----7------------------------------------------------------------------------------|
|---------10------10-----10-8-7-10-8-7----8--7---7-8---------------7*---7-8---7*--8--7-8-7-8-7-8-7-8-|
|--------------------------------------9-------9-----9ful-9-7-9--------------------------------------|
|----------------------------------------------------------------------------------------------------|
|----------------------------------------------------------------------------------------------------|
|----------------------------------------------------------------------------------------------------|

|-------------------------------------------------------------------------------------------------------|
|------------8--7----7-8-7*------------------------7-7-7-7-8-8-8-8-10-10-10-10-8-8-8-8-7-7-7-7----------|
|----------7-------------------------------9-9-9-9---------------------------------------------9-9-9-9--|
|--------9---------------------10-10-10-10--------------------------------------------------------------|
|--10*--------------------------------------------------------------------------------------------------|
|-------------------------------------------------------------------------------------------------------|

|--------------------------------------10-8-7----8-7----7-------------------------|
|----7-8------10ful---10--8--7--8*------------10-----10----10-8-7-10-8-7----8-----|
|9*-------9*--------------------------------------------------------------9-------|
|---------------------------------------------------------------------------------|
|---------------------------------------------------------------------------------|
|---------------------------------------------------------------------------------|

ESCUCHEN LA CANCION PARA GUIARSE.... ALGUNA CORRECCION MANDENLA AL MAIL....

AGUANTE HERMETICA CHEEEEE !!!!!
Este fichero es trabajo propio de su transcriptor y representa su interpretación personal de la canción. El material contenido en esta página es
para exclusivo uso privado, por lo que se prohibe su reproducción o retransmisión, así como su uso para fines comerciales.


© LaCuerda.net · Aviso Legal · Privacidad