Acordes de Guitarra » H »Hector Lavoe » Aires de navidad (Tab)

Aires de navidad
Hector Lavoe

Letras, Acordes y Tabs para Guitarra, Bajo y Ukulele

  • Intro: G
    
                                 F E
    Ya van a empezar las fiestas
                       Am
    las fiestas de navidad
         D
    y el jibarito cantando
                        G
    a todos nos va alegrar.
                              F E
    Vamos a que no recuerdan
                     Am
    el más remoto rincón
          D
    se escucha al jibarito
                         G
    cantando su inspiración.
    
    
    
  • Hola mis amigos salseros. Ya he vuelto!!! Ahora como regalo de
    navidad, les dejo este sabroso y hermoso aguinaldo
    salsero a cargo de la dupla Colón-Lavoe:
    
    Intro:
    
    G -----------------------|
    D -5---5---5---5---5-----|
    A ---5---5---5---5-------|
    E -----------------------|
    
    Versos "Ya van a empezar las fiestas, las fiestas de Navidad.
    Y el jibarito cantando a todos los va a alegrar.." (2 veces):
    
    G -------------------------------------------|
    D ---5--------7---7------7----7-5---5---5----|
    A -5----8-7-7---7---7--5---5------5---5------|
    E -------------------------------------------|
    
    Cambio I (3 veces):
    
    G -----------7----------7-------------|
    D -5-7----5----5-----7---------4-5----|
    A -----5----------5-------5--7--------|
    E ------------------------------------|
    
    Versos "Se acerca la Navidad y a todos nos va a legrar.
    Y el jibarito cantando aires de felicidad.." (2 veces):
    
    G ---------------------------------------|
    D --------7---7------7----7-5---5---5----|
    A --8-7-7---7---7--5---5------5
  • +
    ¡Colabora con nosotros!
    Envíanos tu versión de esta canción

Letra de Aires de navidad
Ya van a empezar las fiestas
las fiestas de navidad
y el jibarito cantando
a todos nos va alegrar.
Vamos a que no recuerdan
el más remoto rincón
se escucha al jibarito
cantando su inspiración.
Felicitarles ahora queremos
con tono de devoción
le deseamos feliz año
la orquesta de Willie Colón.
Se acerca la navidad, y a todos nos va a alegrar
el jibarito cantando aires de felicidad.
Lo lai le lo le, lo lai le lo la
aunque usted no quiera le vengo a cantar.
Y a felicitar con voz de alegría
yo traigo armonía a su santo hogar
que yo traigo armonía a su santo hogar.
Un veinticinco nació
y fue en el mes de diciembre
en un humilde pesebre
la luz del mundo llegó.
Y con esta me despido
como esto es devoción
que pasen un feliz año
les deseo de corazón.
asalto de navidad...
º-| ¤ ¤ |-º
º-| LuïS |-º
º-| ¤ ¤ |-º
/
| |




[Aires de navidad chords][Aires de navidad cifra]
© LaCuerda.net · aviso legal · privacidad · es · en · pt · contacto
DINAMICO