Acordes de Guitarra » H »Hector Lavoe » El Cantante (Tab)

El Cantante
Hector Lavoe

  • Letra y Acordes
     Gm          A7     Cm           D          Gm 
    Yo soy  el cantante,   que hoy han venido a escuchar
                   A7      Cm           D        Gm 
    Lo mejor del repertorio,  a ustedes voy a brindar
       Cm7       F7      Bb7      Eb7
    Y canto a la vida de risas y penas
       Adim7     D7        Gm
    De momentos malos y de cosas buenas
       Cm7       F          Bb7           Eb7
    Vinieron a divertirse y pagaron en la puerta
           Adim7        D        Gm     D        Cm
    no hay tiempo para tristezas vamos cantante comienza
    
    
       Gm                  A7    D             Cm    Gm
    Me paran siempre en la calle,  mucha gente que comenta
                           A7    D          Cm              Gm
    ¡oye Héctor¡ tu estas hecho,   siempre con hembras y en fiestas
      Cm7        F       Bb7       Eb7
    Y nadie pregunta si sufro o si lloro
    
  • Tablatura
    (Gm - G#)
    e|-------------------------|
    B|---8-7---6-5-------------|
    G|-7-----7-----5---3-5-3h5-|
    D|---------------5---------|
    A|-------------------------|
    E|-------------------------|
    
    C
    e|--------------------5-3---5-3--------17-15----15-17----|
    B|---6-5---6-5------5-----5-----5---17-------17-------17-|
    G|-5-----5-----5-----------------------------------------|
    D|-------------------------------------------------------|
    A|-------------------------------------------------------|
    E|-------------------------------------------------------|
    
    e|----------------|
    B|----------------|
    G|-------5-7---7--|
    D|-5-7-8-------5--|
    
  • +
    ¡Colabora con nosotros!
    Envíanos tu versión de esta canción

Letra de El Cantante
Yo soy el cantante, que hoy han venido a escuchar
Lo mejor del repertorio, a ustedes voy a brindar
Y canto a la vida de risas y penas
De momentos malos y de cosas buenas
Vinieron a divertirse y pagaron en la puerta
no hay tiempo para tristezas vamos cantante comienza
Me paran siempre en la calle, mucha gente que comenta
¡oye Héctor¡ tu estas hecho, siempre con hembras y en fiestas
Y nadie pregunta si sufro o si lloro
Si tengo una pena que hiere muy hondo
Yo soy el cantante porque lo mío es cantar
Y el publico paga para poderme escuchar
Yo soy el cantante, muy popular donde quiera
pero cuando el show se acaba, soy otro humano cualquiera
Y sigo mi vida con risas y penas
Con ratos amargos y con cosas buenas
Yo soy el cantante y mi negocio es cantar
Y a los que me siguen mi canción voy a brindar
Hoy te dedico, mis mejores pregones



© LaCuerda.net · aviso legal · privacidad · contacto