Acordes de Guitarra » H »Hector Lavoe » Periódico de ayer (Tab)

Periódico de ayer
Hector Lavoe

  • Tablatura
    e|-----------------------------------------3-4-3.---------
    B|-8.-6-8---8-6-8---4.---4------------4-6.--------6.-3-4.-
    G|--------5-------5--------6----3-5-6---------------------
    D|---------------------6------6---------------------------
    A|--------------------------------------------------------
    E|--------------------------------------------------------
    
    e|-------7-7-7-7-7--7-7-7-7-7-|
    B|-----9----------------------|
    G|---8------------------------|
    D|-9--------------------------|
    A|----------------------------|
    E|----------------------------|
    
    
    Cm                           Fm
    Tu amor es un periódico de ayer
               G              Cm
    que nadie más procura ya leer
            Fm            Bb             D#
    
  • +
    ¡Colabora con nosotros!
    Envíanos tu versión de esta canción

Letra de Periódico de ayer
Tu amor es un periódico de ayer
que nadie más procura ya leer
sensacional cuando salió en la madrugada
a medio día ya noticia confirmada
y en la tarde materia olvidada.
Tu amor es un periódico de ayer
fue titular que alcanzó página entera
por eso ya te conocen donde quiera
tu nombre ha sido con recorte que guardé
y en el album del olvido lo pegué.
Tu amor es un periódico de ayer
que nadie más procura ya leer
el comentario que nació en la madrugada
y fuimos ambos la noticia propagada
y en la tarde materia olvidada
tu amor es un periódico de ayer.
Y para qué leer un periódico de ayer
oye noticia que todos saben, ya yo no quiero leer.
Y para qué leer un periódico de ayer
tú no serviste pa' nada mami y al zafacón yo te eché.
Y para qué leer un periódico de ayer
echa, camina, apártate de mi vera, apártate de mi lado.
Y para qué leer un periódico de ayer
té eres El Diario, la Prensa, Radio Bemba, Radio Bemba.
Y para qué leer un periódico de ayer
para qué voy a leer la historia de un amor que no ni puedo creer.
Y para qué leer un periódico de ayer
te quise, te tuve, te mantuve pero ya no te quiero.
Y para qué leer un periódico de ayer
a tu casa yo no voy, Polito, va y tumbe la chaveta, la chaveta.
Y para qué leer un periódico de ayer
en el album de mi vida en una página escondida ahí te encontre.
Y para qué leer un periódico de ayer
anda vete de mi vera, cosa buena, ya no te quiero ni ver
Y para qué leer un periódico de ayer
qué te pasa estas llorando? tienes alma de papel.
Y para qué leer un periódico de ayer
y como el papel aguanta todo, así mismo te traté
Y para qué leer un periódico de ayer
analízate tu historia, y así podrás comprender.
º-| ¤ ¤ |-º
º-| LuïS |-º
º-| ¤ ¤ |-º
/
| |



© LaCuerda.net · aviso legal · privacidad · contacto