Acordes de Guitarra » G »Gustavo Cerati » Profugos (Tab)

Profugos
Gustavo Cerati

Letras, Acordes y Tabs para Guitarra, Bajo y Ukulele

  • e:------------------------------
    B:------------------------------
    G:------------------------------
    D:------------------------------
    A:-2-2-4-0-5----2-2-4-0-5-4-----
    E:-0-0-0-0-0----0-0-0-0-0-0-----
    
    e:----------------------------------------------------------------
    B:-------------------2--------------------------------------------
    G:---------------------4-2----------------------------------------
    D:-2-2-0-4-5-4---------------4-2---2-4)---------------------------
    A:-0-0-0-0-0-0-------------------4-------2-2-4-0-5---2-2-4-0-5-4--
    E:---------------------------------------0-0-0-0-0---0-0-0-0-0-0--
    
    e:-------------------------------------------
    B:---------------------------10--------------
    G:---------------------------11--------------
    D:-2-2-0-4-5-4--2-2-0-5-4-----9--------------
    A:-0-0-0-0-0-0--0-0-0-0-0----10--------------
    E:-------------------------------------------
    
  • +
    ¡Colabora con nosotros!
    Envíanos tu versión de esta canción
  • Tutorial
    HD
    Como tocar "Profugos" de Soda Stereo en guitarra
    10:02

Letra de Profugos
VERSO I
SOMOS COMPLICES LOS DOS
AL MENOS SE QUE HUYO PORQUE AMO
NECESITO DISTENCION
ESTAR ASÍ DESPIERTO (esta parte va con pua alternada)
ES UN DELIRIO DE CONDENADOS
D:-2-2-4-5- riff cerati canta el coro que es así.
A:-0-0-0-0-
NO SEAS TAN CRUEL NO BUSQUES MAS PRETEXTOS
NO SEAS TAN CRUEL SIEMPRE SEREMOS PROFUGOS LOS DOOOOOS
ahora cerati dice "no tenemos donde ir"
esta parte es con pua alternada
NO TENEMOS DONDE IR
ahora se repite el coro y despues de eso viene el solo que es asi
ahora hace el riff y despues finaliza con los acordes del coro
yo me guie por el cover de ricardo faundez y algunos conciertos
de cerati como el pepsi music.




[Profugos chords][Profugos cifra]
© LaCuerda.net · aviso legal · privacidad · es · en · pt · contacto