Acordes de Guitarra » G »Gustavo Cerati » Cactus (Tab)

Cactus
Gustavo Cerati

Letras, Acordes y Tabs para Guitarra, Bajo y Ukulele

  • Am  E/G#  G  Dm  (x2)
    
    (I)
    Am             E/G#        G       Dm
    Un cactus suaviza mis yemas con su piel
     Am             E/G#        G           Dm
      y tiene cien años, solo florece una vez
    
    (II)
              Am  Am/F#  Fmaj7  Esus4          Am    Am/F#   Fmaj7  Esus4
    en tu nombre,                        en tu nombre.
    
    (I)
    Y tiene un veneno mas amargo que la hiel
    y con solo invocarte voy a convertirlo en miel
    
    (II)
    en tu nombre, en tu nombre.
    
    (III)
    
  • Am E7 G Dm7
    
    Am           E7/B     G            Dm7
    Un cactus suaviza mis yemas con su piel
    Am        E7/B       G           Dm7
    Tiene 100 años, sólo florece una vez
          Am  D7 F E
    En tú nombre...
          Am  D7 F E
    En tú nombre...
    
    
    Am          E7/B      G           Dm7
    Tiene un veneno más amargo que la hiel
    Am           E7/B        G              Dm7
    Con sólo invocarte voy a convertirlo en miel
          Am   D7 F E
    En tú nombre...
          Am   D7 F E
    En tú nombre...
    
  • -------------------------------
    Am: 7-7-7-5-x-x
    E7: 6-7-6-7-x-x
    G5: 5-5-5-7-x-x
    Dm: x-5-7-7-6-x
    Am: x-0-2-2-1-x
    D7: 4-x-0-2-1-x
    F6: 3-x-0-2-1-x
    E: x-2-2-1-0-x
    Am: x-0-2-2-1-x
    Bm+: x-2-0-0-3-x
    C: x-3-5-5-5-x
    Dm: x-5-7-7-6-x
    E7: x-7-9-7-9-x
    Am: x-0-2-2-1-x
    G7: x-2-0-0-0-1
    F: x-x-3-2-1-x
    Gno5: x-x-5-4-0-x
    Am: x-0-2-2-1-x
    C: x-3-2-0-1-0
    
  •      Am  E7/G#    G5    D5
    e||---8-----10----7-------------|
    B||---10----9-----8----8/10-----|
    G||---9-----9-----7-------------|
    D||---0-----0-----0-------------|
    A||---0-----0-----0-------------|
    E||---0-----0-----0-------------|
    
          Am  E7/G#   G5   D5
    e||---x-----x-----x----x--------||
    B||---x-----x-----x----X--------|
    G||---5-----7-----7----3--------|
    D||---7-----6-----5----x--------|
    A||---7-----7-----5----x--------|
    E||---7-----6-----5----x--------|
    
         Am   D7/F#  Dm7/F   E
    e||---x-----x-----x------x------|
    B||---1-----1-----1------x------|
    G||---2-----2-----2------1------|
    
  • Hola!!! primero ke nada deben afinar su guitarra,
    todas la cuerdas son en la mismo entonacion excepto la 6ta o Mi (E).
    en lugar de afinarla en Mi afinenla en RE, y listo!!!
    Disfrutenla!!!
    
    
    Cactus
         ^
         |----3---|    3    3    -----   |----3---|    3    3    -----
         H        Q    Q    Q    Q       H        Q    Q    Q    Q
    E||-------------------------------|-------------------------------|
    B||-------------------------------|-------------------------------|
    G||--5-------------5--------------|--7-------------7--------------|
    D||--7--------7---------7---------|--6--------6---------6---------|
    A||-------------------------------|-------------------------------|
    D||--7----------------------------|--6----------------------------|
    
    
                                      ^
      |----3---|    3    3    -----   |----3---|    |--3-|        13
      H        Q    Q    Q    Q       H        Q    Q    H        H
    -------------------------------|----------------------------------|
    -----------------------
  • +
    ¡Colabora con nosotros!
    Envíanos tu versión de esta canción

Letra de Cactus
Un cactus suaviza mis yemas con su piel
Tiene 100 años, sólo florece una vez
En tú nombre...
En tú nombre...
Tiene un veneno más amargo que la hiel
Con sólo invocarte voy a convertirlo en miel
En tú nombre...
En tú nombre...
Cuando te busco no hay sitio donde no estés.
Y los médanos, serán témpanos
En el vértigo de la eternidad
Y los pájaros serán arboles
En lo idéntico de la soledad.
Fuerza Cerati




[Cactus chords][Cactus cifra]
© LaCuerda.net · aviso legal · privacidad · es · en · pt · contacto