Acordes de Guitarra » G »Gustavo Cerati » Lago en el cielo (Tab)

Lago en el cielo
Gustavo Cerati

Letras, Acordes y Tabs para Guitarra, Bajo y Ukulele

  • Am7           G            D/F#
    e ----10--10------8--8-----7--7----7--7-----|
    B ------------------------------------------|
    G --10--10--10--9--9--9--7--7--7--7--7--7---|
    D ------------------------------------------|
    A ------------------------------------------|
    E ------------------------------------------|
    
    (2 Veces)
    (Cmaj7/G - D/F# - Cmaj7/G)4 Veces
    
    Cmaj7/G           D/F#   Cmaj7/G
    Un lago en el cielo
                   D/F#   Cmaj7/G
    quiero ser suave
                   D/F#   Cmaj7/G   D/F#   Cmaj7/G
    para evitar tu dureza
                  D/F#   Cmaj7/G
    apago tu fuego
                   D/F#   Cmaj7/G
    
  •       Am           G            D
    
    e -----5---5------3--3-----2--2----2--2-----|
    B ------------------------------------------|
    G ---5---5---5--4--4--4--2--2--2--2--2--2---|
    D ------------------------------------------|
    A ------------------------------------------|
    E ------------------------------------------|
    
    
    (2 Veces)
    
    (Cmaj7 - D - Cmaj7)4 Veces
    
    Cmaj7              D   Cmaj7
    Un lago en el cielo
                    D   Cmaj
    quiero ser suave
                     D   Cmaj7     D   Cmaj7
    para evitar tu dureza
    
  •       Am             G            D
    
    e ----------------|------------|------------------------|
    B ----------------|------------|------------------------|
    G ----10----10----|----8---8---|---7---7-------7---7----|
    D ----------------|------------|------------------------|
    A -10----10----10-|-9---9----9-|-7---7---7---7---7---7--|
    E ----------------|------------|------------------------| (2 Veces)
    
    e ----------------|------------|-----------------------|
    B ----------------|------------|-----------------------|
    G ----10----10----|----8---8---|---7---7---------7-----|
    D ----------------|------------|-----------------7-----|
    A -10----10----10-|-9---9----9-|-7---7---7---7---7-----|
    E ----------------|------------|-----------------------|
                                                     ^
                                          aqui hacen un slide down
    
    Cmaj7 - D --- x4 Veces
    
    
  • +
    ¡Colabora con nosotros!
    Envíanos tu versión de esta canción
  • Tutorial
    Lago en el cielo (acordes)
    - Gustavo Cerati.
    5:11
  • Tutorial
    HD
    Explicado - Como tocar "Lago en el cielo" de Gustavo Cerati en el bajo tutorial#277
    10:32

Letra de Lago en el cielo
(2 Veces)
Un lago en el cielo
quiero ser suave
para evitar tu dureza
apago tu fuego
enciende mi agua
puede que no haya certezas
Vamos despacio
para encontrarnos
el tiempo es arena en mis manos
sé por tus marcas
cuanto has amado
más de lo que prometiste
Hoy te apuré
(estaba tan sensible)
son espejismos que aumentan la sed
si adelanté no me hagas caso
a veces no puedo con la soledad
Vamos despacio
para encontrarnos
el tiempo es arena en mis manos
sé por tus marcas
cuanto has dejado
para olvidar lo que hiciste
sentir algo que nunca sentiste
Sos el paisaje más soñado
y sacudiste las más sólidas tristezas
y respondiste cada vez que te he llamado
Vamos despacio
para encontrarnos
el tiempo es arena en mis manos
un lago en el cielo
es mi regalo
para olvidar lo que hiciste
y sentir algo que nunca sentiste
hacerte sentir
algo que nunca sentiste
ACORDES:
EADGBe




[Lago en el cielo chords][Lago en el cielo cifra]
© LaCuerda.net · aviso legal · privacidad · es · en · pt · contacto