Acordes de Guitarra » G »Gustavo Cerati » Cosas Imposibles (Tab)

Cosas Imposibles
Gustavo Cerati

Letras, Acordes y Tabs para Guitarra, Bajo y Ukulele

  • MI
    Si un amor cayó del cielo
                 LA
    no pregunto más
    MI
    en mis sueños nunca pierdo
                LA
    la oportunidad
    
    
    MI MIm7 MI MIm7 MI LA
    Ah,  ah,   ah,    ah
    
    
    MI
    Aunque a veces se equivoquen
                 LA
    no confundo más
    MI
    voy a hacer que mis cenizas
    
  • E-----------------------------------------------------
    B-----------------------------------------------------
    G----------------------------------------------------
    D-22222--000--22222--000--22222--000-2-----4-----4---
    A-22222--000--22222--000--22222--000-2--2----2------2
    E-----------------------------------------------------
    
    (RIFF 1)
    D-------4-----4-----------------------------------
    A----2----2------2--------------------------------
    E-------------------------------------------------
    
    
    E
    Si un amor cayó del cielo
                  Bm (riff 1)
    No pregunto más
    E
    En mis sueños nunca pierdo
                 Bm (riff 1)
    
  • E-----------------------------------------------------
    B-----------------------------------------------------
    G----------------------------------------------------
    D-22222--000--22222--000--22222--000-2-----4-----4---
    A-22222--000--22222--000--22222--000-2--2----2------0
    E-----------------------------------------------------
    
    Esto vendria siendo algo como:
    
    E-------------------------------------------------------------
    B-------------------------------------------------------------
    G-------------------------------------------------------------
    D-22222--000----22222---000-----22222--000---2------4-----4---
    A-22222--000----22222---000-----22222--000---2---2----2------0
    E-------------------------------------------------------------
      Si un amor    cayó del cielo  no pregunto más
    
    
    Si un amor cayó del cielo
    No pregunto más
    
  • +
    ¡Colabora con nosotros!
    Envíanos tu versión de esta canción

Letra de Cosas Imposibles
Si un amor cayó del cielo
no pregunto más
en mis sueños nunca pierdo
la oportunidad
Ah, ah, ah, ah
Aunque a veces se equivoquen
no confundo más
voy a hacer que mis cenizas
vuelvan al papel
Ah, ah, ah, ah
Ah, ah, ah, ah
Siempre es hoy
ya es parte de mi ser
siempre es hoy
lo claro entre los dos
siempre es hoy
sos parte de mi ser
Quiero hacer
cosas imposibles
cosas imposibles
Ah...
ah, ah, ah, ah
Mi pasión del porvenir
es la eternidad
no me hablen de esperanzas vagas
persigo realidad
Ah, ah, ah, ah
ah, ah, ah, ah
Siempre es hoy
ya es parte de mi ser
siempre es hoy
lo claro entre los dos
siempre es hoy
sos parte de mi ser
Quiero hacer
cosas imposibles
cosas imposibles
Quiero hacer
cosas imposibles
cosas imposibles




[Cosas Imposibles chords][Cosas Imposibles cifra]
© LaCuerda.net · aviso legal · privacidad · es · en · pt · contacto