Acordes de Guitarra » G »Gustavo Cerati » Bajan (Tab)

Bajan
Gustavo Cerati

Letras, Acordes y Tabs para Guitarra, Bajo y Ukulele

  • Intro:       (E x4)   
      
       E                          F#  
    E-----0----------0---------I-----0---------0----
    B--------0----2------------I--------0----2------
    G-----------0 -------------I-----------0--------
    D--2-----------------------I--4-----------------
    A--2-----------------------I--4-----------------
    E--0----------------0--^3--I--2-----------------
               TENGO TIEMPO        PARA SABER
      
       (slide)   C#m      C       B           
    E-------2--\--4-------3-------2-----------------
    B-------3--\--5-------5-------4-----------------
    G-------4--\--6-------5-------4-----------------
    D-------4--\--6-------5-------4-----------------
    A-------2--\--4-------3-------2-----------------
    E-------x-----x---------------------------------
           SI LO QUE SUENO CONCLUYE EN ALGO.
           
    
  • E-----0----------0---------I
    B--------0----2------------I
    G-----------0 -------------I
    D--2-----------------------I (MI x4)
    A--2-----------------------I
    E--0----------------0--^3--I
    
               MI          FA#m
               TENGO TIEMPO PARA SABER
    
        DO#m         SOL#7-9  SI
           SI LO QUE SUENO CONCLUYE EN ALGO.
    
           MI          FA#m
           NO TE APURES  YA MAS LOCO
    
           DO#m         SOL#7-9    SI
           PORQUE ES ENTONCES  CUANDO LAS HORAS
    
          -------------CORO-----------------
    
  •  E        [022100]
     F#m      [244222]
     C#m      [x46654]
     Fdim7    [xx4545]
     |B        [x24442]
     G#m      [466444]
     Cdim     [x3454x]
     C        [87555x]
     Am7      [575555]
     Ab       [xx6554]
     G#m7     [x64444]
     Emaj9    [x74444]
     A7       [575655]
    
    
    Riff:
    
    e|-----0-----------0---------0-----------0------|
    B|--------0-----2---------------0-----2---------|
    G|--1--------1---------------------1------------| x4
    
  • +
    ¡Colabora con nosotros!
    Envíanos tu versión de esta canción

Letra de Bajan
TENGO TIEMPO PARA SABER

SI LO QUE SUENO CONCLUYE EN ALGO.

NO TE APURES YA MAS LOCO

PORQUE ES ENTONCES CUANDO LAS HORAS

BAJAN EL DIA
ES VIDRIO SIN SOL

BAJAN LA NOCHE
TE OCULTA LA VOZ
Y ADEMAS
VOS QUERES SOL

DESPACIO TAMBIEN

PODES HALLAR LA LUNA.

(repite intro)
VIEJO ROBLE DEL CAMINO
TUS HOJAS SIEMPRE SE AGITAN ALGO
NENA NENA QUE BIEN TE VES
CUANTO EN TUS OJOS
NO IMPORTA SI LAS HORAS




[Bajan chords][Bajan cifra]
© LaCuerda.net · aviso legal · privacidad · es · en · pt · contacto