Acordes de Guitarra » G »Grupo Nectar » Arbolito (Tab)

Arbolito
Grupo Nectar

Letras, Acordes y Tabs para Guitarra, Bajo y Ukulele

  • Intro: Bm - G - A - D
           D - A - Bm
    
    Bm                 G
    Viento tu que te alejas
    A                D
    junto a mi amorcito,
    Bm                 G
    cuentale que la espero
    A              D
    junto al arbolito.
    
    D    A     Bm    D    A         Bm
    Aquel arbolito, donde esta escrito
    D     A         Bm    A             Bm
    tu nombre y el mio, tu nombre y el mio.
    
    Aquel...
    
    Bm              G
    
  • e|----------------------------------------------------------
    b|---3-----------3---2---3------3-----------3---2-----------
    G|-4---4-2-4---4---2---4------4---4-2-4---4---2---4---------
    D|-----------4--------------------------4-------------------
    A|----------------------------------------------------------
    E|----------------------------------------------------------
    
    e|----------------------------------------------------------
    b|---3-----------3---2---3------3-----------3---2-----------
    G|-4---4-2-4---4---2---4------4---4-2-4---4---2---4---4-2-4-
    D|-----------4--------------------------4-------------------
    A|----------------------------------------------------------
    E|----------------------------------------------------------
    
     |-->|    esto significa
     v   v jalar hasta el traste
    
    
    del 12 al 15      14 al 15
       |-->|           |-->|                     |----->|
    
  • D-4-7---4---4-7-6-4-------4-7---4---4-7-6-4-------------  x2
    G----4-7---4---4---4---------4-7---4---4----------------
    
    e-10-10-10-9-8-10-10---9-9-9-7----------9-7- x2
    B------------------------------9-7-9-10-----
    
    B------10-12-12-------10-12-12-------10--------------------
    D-11-11----------11-11----------11-11---9-11-9-11-9----11-- |
    G---------------------------------------------------12----- |
                                                                |  x2
    B------10-12-12-------10-12-12-------10-----------------    |
    D-11-11----------11-11----------11-11----7-9-7-9-7---7--    |
    G--------------------------------------------------9----    /
    
    Bm                 G    A        D
    Viendo tu que te alejas junto a mi amorcito
    B                  G      A          D
    cuentale que la espero junto al arbolito
    
    coro:
    
  • MI-------------------------------------------------------
    SI-------------------------------------------------------
    Re-4-7---4---4-7-6-4-------4-7---4---4-7-6-4-------------
    So----4-7---4---4---4---------4-7---4---4----------------
    LA-------------------------------------------------------
    MI-------------------------------------------------------
    (Repite 2 veces la zona A)
    
    (ZONA B):
    MI---10-10-10-------10-------9--9--9---------------------
    Si--12--12-12-14-12-12-12---10-10-10-13-11-----11-13-11--
    RE-11------------------11----------------12-12-----------
    So-------------------------------------------------------
    LA-------------------------------------------------------
    MI-------------------------------------------------------
    (Repite 2 veces la zona B)
    
    (ZONA C):
    MI-------------------------------------------------------
    Si------10-12-12-------10-12-12-------10-----------------
    
  • desde huaraz........  con kariño
    
     esta cancion es un clasico de la cumbia por eso la saque ,creo
     q esta corecta cualquier consulta me escriben a bryan_7111@hotmailcom
    
    1------------------------------------------------------
    2------------------------------------------------------
    3--4-6-----4-----4-6---6-4-7----4-6-----4---4-6---6-4--
    4------4-6-----4-----4--------------4-6---4-----4------
    5------------------------------------------------------
    6------------------------------------------------------
      (2 veces)
    
    
    1---10-10-10-------10-10---------------------------------
    2--12--12-12-14-12-12----12/14-14-14---12-10-------11-13-11
    3-11---------------------------------------12-12------
    4-------------------------------------------------------
    5-------------------------------------------------------
    6-------------------------------------------------------
      (2 veces)
    
    
    1-----------------------------------------------------------
    2------10/12-12 12-------10/12-12-12------10----------------
  • 1------------------------------------------------------
    2------------------------------------------------------
    3--4-6-----4-----4-6---6-4-7----4-6-----4---4-6---6-4--
    4------4-6-----4-----4--------------4-6---4-----4------
    5------------------------------------------------------
    6------------------------------------------------------
      (2 veces)
    
    
    1-6h9-9-9-8-6--8/9--9h11-9-------------------------------------
    2---------------------------11--11h13-13-13-11-9------9-11-9---
    3------------------------------------------------10-10---------
    4--------------------------------------------------------------
    5--------------------------------------------------------------
    6--------------------------------------------------------------
      (2 veces)
    
    
    1-----------------------------------------------------------
    2------9-11-11-------9-11-11-------9------------------------
    3-10-10---------10-10---------10-10--8-10-8-10-8-6-8/10-----
    4-----------------------------------------------------------
    5-------
  • El arbolito  bueno aquí les dejo las posiciones de los bajos
    Esta canción que   hizo popular al grupo néctar que en paz
    Descanse…
    
    El bajo de Bm
    E|-------------
    A|----2--5-----
    D|---------4---
    G|-------------
    
    El bajo de  G
    E|---3---------
    A|-----2---5---
    D|-------------
    G|-------------
    
    
    El bajo de A
    E|-5-9-5-------
    A|----7--------
    D|-------------
    G|-------------
    
    El bajo de D
    E|----------
    A|--5--9-----5---
    D|--------7-----
    G|--------------
    
    Intro 1
    E |--2- - - - - - - -
    A |- - - - 2 - - - - -  x6
    
    Intro 2
    Bm/G/A/D     x 2
    
    Intro 3
    D/A/D
    D-A-Bm
    
    Canto:
    Bm x2 G x2
    A x2 D x2
    
    Coro:
    D-A/Bm x3
    A Bm
    
    Esta canción la dedico a mi  mamita  Machi  :D
    por el amor que nos da  a mi  familia y a mi
     XD : )   te quiero vieja……:P
  • +
    ¡Colabora con nosotros!
    Envíanos tu versión de esta canción

Letra de Arbolito
Viento tu que te alejas
junto a mi amorcito,
cuentale que la espero
junto al arbolito.
Aquel arbolito, donde esta escrito
tu nombre y el mio, tu nombre y el mio.
Aquel...
Nunca habia llorado
por ningun cariño
y hoy como el arbolito
lloro como un niño.
Aquel...
Aquel...
Interludio
Nunca habia...
Aquel...
Aquel...




[Arbolito chords][Arbolito cifra]
© LaCuerda.net · aviso legal · privacidad · es · en · pt · contacto