Acordes de Guitarra » G »Gian Marco » Hoy (Tab)

Hoy
Gian Marco

Letras, Acordes y Tabs para Guitarra, Bajo y Ukulele

  •       EbGDAE
    Sib:  133311
    Sibm: 12331X
    Solm7:363553
    Mib:  68886X
    Mib7: 3231XX
    Labm: 444664
    
    (X) no se toca!
    
    
    SOL-m             SOL-m7 FA
    TENGO MARCADO EN EL PECHO
              FAsus4        MI-B
    TODOS LOS DIAS QUE EL TIEMPO
             FA      SIb  SIbm SIb
    NO ME DEJO ESTAR AQUI.
    SOLm             SOLm7 FA
    TENGO UNA FE QUE MADURA
                    FAsus4 MIb
    
  • Em                   D
    Tengo marcado en el pecho
                            C
    todos los días que el tiempo
             D         G       ( G  D/F# )
    no me dejó estar aquí.
    
    Em                  D
    Tengo una fe que madura
                         C
    que va conmigo y me cura
              B7     Em
    desde que te conocí.
    
    Estrofa 1:
    Tengo una huella perdida
    entre tu sombra y la mía
    que no me deja mentir.
    
    Soy una moneda en la fuente,
    
  • Fm                   D#
    Tengo marcado en el pecho
                            C#
    todos los días que el tiempo
             D#        G#       ( G# D#/G )
    no me dejó estar aquí.
    
    Fm                  D#
    Tengo una fe que madura
                         C#
    que va conmigo y me cura
              C7     Fm         (Fm C7 Fm C7)
    desde que te conocí.
    
    Repite Acordes Estrofa 1:
    
    Fm                   D#
    Tengo una huella perdida
                          C#
    entre tu sombra y la mía
    
  • --0-0-0-0-------------0------------------0-0--0-0-0-0-0-----
    ---------3-1-3-3-3-3-1--3-1-1-1-1-1-1-3-3--------------3-1-3
    ------------------------------------------------------------
    ------------------------------------------------------------
    ------------------------------------------------------------
    ------------------------------------------------------------
    
    --------0--------------------------1-1-1-1-3-3-3-3-------3-1
    -3-3-3-1--3-1-1-1-1-1-1-0--------------------------3-3-3----
    -------------------------2-1-2------------------------------
    ------------------------------------------------------------
    ------------------------------------------------------------
    ------------------------------------------------------------
    
    --0-0-0-0-0-1-0-0-0-0-0-0-0-0----------------0-1-1-1-5----8-7
    -3-----------------------------------0-1-3-3-----------8-8---
    ------------------------------1-2--2-------------------------
    -------------------------------------------------------------
    ------------------
  • +
    ¡Colabora con nosotros!
    Envíanos tu versión de esta canción

Letra de Hoy
(X) no se toca!
TENGO MARCADO EN EL PECHO
TODOS LOS DIAS QUE EL TIEMPO
NO ME DEJO ESTAR AQUI.
TENGO UNA FE QUE MADURA
QUE VA CONMIGO Y ME CURA
DESDE QUE TE CONOCI.
TENGO UNA MAÑANA ANGUSTIANTE
Y UNA ACUARELA ESPERANDO VERTE PINTADO DE AZUL.
TENGO TU AMOR Y TU SUERTE
Y UN CAMINITO ENPINADO TENGO EL MAR DEL OTRO LADO
TU ERES MI NORTE Y MI SUR.
HOY VOY A VERTE DE NUEVO
VOY A EMBOLVERME EN TU ROPA
SUSURRAME EN TU SILENCIO CUANDO ME VEAS LLEGAR.
HOY VOY A VERTE DE NUEVO
VOY A ALEGRAR TU TRISTEZA
VAMOS A HACER UNA FIESTA PA QUE ESTE AMOR QUE ESTA MAL.
TENGO UNA FRACE COLGADA
ENTRE MI BOCA Y MI ALMOHADA
QUE ME DESNUDA ANTE TI.
TENGO UNA PLAYA Y UN PUEBLO
QUE ME ACOMPAÑAN DE NOCHE CUANDO NO ESTAS JUNTO A MI.
Fin: Gm-Bb




[Hoy chords][Hoy cifra]
© LaCuerda.net · aviso legal · privacidad · es · en · pt · contacto