Acordes de Guitarra » G »Gian Marco » Tu Fotografia (Tab)

Tu Fotografia
Gian Marco

Letras, Acordes y Tabs para Guitarra, Bajo y Ukulele

  • Am7           D          G
    Me levanto en tu fotografía
    Am7             D                G
    Me levanto y siempre allí estas tu
    Am7            D          G
    En le mismo sitio y cada día
               Am7                     D
    La misma mirada el mismo rayo de luz
    
    Am7             D                G
    El color ya no es el mismo de antes
    Am7           D       G
    Tu sonrisa casi se borro
    Am7             D                  G
    Y aunque no se nota en blanco y negro
                Am7                D
    No me desespero uso mi imaginación
    
    Bm6             E7            Am7
    Nadie tiene un pacto con el tiempo
    
  •   C/F#                        G/F#
    e------------------------------------------------------------|
    B------------------------------------------------------------|
    G-------0----0--------0----0--------0----0---------0----0----|
    D------4----4--------4----4--------4----4---------4----4-----|
    A--3-------------3-------------------------------------------|
    E-------------------------------3--------------3-------------|
    
    Riff 2
    
    e--------8--------------8--------------7--------------7---------|
    B---8-7-8--8-7-8---8-7-8--8-7-8---8-7-8--8-7-8---8-7-8--8-7-8---|
    G---------------------------------------------------------------|
    D---------------------------------------------------------------|
    A---------------------------------------------------------------|
    E---------------------------------------------------------------|
    
    
    Am                       G/F#                   G/F#    324030
    Me levanto en tu fotografía,
    
  • +
    ¡Colabora con nosotros!
    Envíanos tu versión de esta canción

Letra de Tu Fotografia
Me levanto en tu fotografía
Me levanto y siempre allí estas tu
En le mismo sitio y cada día
La misma mirada el mismo rayo de luz
El color ya no es el mismo de antes
Tu sonrisa casi se borro
Y aunque no se nota en blanco y negro
No me desespero uso mi imaginación
Nadie tiene un pacto con el tiempo
Ni con el olvido, ni el dolor…
Si desapareces yo te encuentro
En la misma esquina de mi habitación
Cada día que pasa te pienso te vuelvo a mirar
Cada cosa en su sitio el pasado el presente
En el polvo mis dedos se juntan
Y quieren tenerte cambiando conmigo
No he movido tu foto, ni el tiempo en los años,
Si me hablas de lejos procura avisarme temprano
Y así controlarme...
Me levanto en tu fotografía,
Cada día invento una actitud,
Y aunque no estés clara yo te invento
En mis pensamiento, en mi corazón
Nadie tiene un pacto con el tiempo
Ni con el rocío de la flor…
Si desapareces yo te encuentro
En la misma esquina de mi habitación
Cada día que pasa te pienso te vuelvo a mirar
Cada cosa en su sitio el pasado el presente
En el polvo mis dedos se juntan
Y quieren tenerte cambiando conmigo
No he movido tu foto, ni el tiempo en los años,
Si me hablas de lejos procura avisarme temprano
Y así controlarme...
Y así imaginarme que te tengo aquí…




[Tu Fotografia chords][Tu Fotografia cifra]
© LaCuerda.net · aviso legal · privacidad · es · en · pt · contacto