Acordes de Guitarra » G »Gian Marco » Se me olvidó (Tab)

Se me olvidó
Gian Marco

Letras, Acordes y Tabs para Guitarra, Bajo y Ukulele

  • E--------------------------
    B--------------------------
    G------7-5-7---5-----7-5---
    D----7-------7-----7-------
    A--0-------------5---------
    E--------------------------
    Tu maleficio me pretende
    tus ironías me hacen mal
    tu pasaporte se me vence
    tu cintura se escondio en el mar
    
    Me he acostumbrado a obedecerte
    y me prohibiste reclamar
    cuidaste que no me revele
    controlaste hasta mi libertad
    
    G                         A
    Rompí mi amor sin consultarte
    G                        A
    Levanté el ancla en altamar
    
  • INTRO: RE-LA (2 veces)
    
    D                 A
    Tu maleficio me pretende
    Bm                  G
    Tus ironías me hacen mal
    D                 A
    Tu pasaporte se me vence
                    Bm           G
    Tu cintura se escondió en el mar
    
    D                  A
    Me he acostumbrado a besarte
    Bm                   G
    Y me prohibiste reclamar
    D                    A
    Cuidaste que no me revele
                     Bm       G
    Controlaste mi libertad
    
    
  • D                    A
    |--------2-0-2-0-----------2-0--|
    |------3---------3-------3------|
    |----2-----------------0--------|
    |--0-----------------2----------|
    |-------------------------------|
    |-------------------------------|
    
    D                     A
    Tu maleficio me pretende
    D                     A
    Tus ironías me hacen mal
    D                     A
    Tu pasaporte se me vence
    D                    A
    Tu cintura se escondió en el mar
    
    D                    A
    Me he acostumbrado a obedeserte
    D                    A
    
  • La* - 557755
    
    Durante las estrofas va un arpegio como éste,
    deben haber escuchado la canción para poder
    seguir el ritmo:
    
    
     1|---------2-0-2---0---------2-------------
     2|-------3-------3---------3---------------
     3|-----2-----------------0-----------------
     4|---0-------------------------------------
     5|-----------------------------------------
     6|--------------------3--------------------
    
    Esto se hace durante toda la estrofa.
    
    
    Estrofa:
    
    Tu maleficio me pretende
    
  •    D              G
    E--2-2---0-2-0----3-2---0-2-0---
    B--3-3-3---3---3--3-3-3---3---3-
    G--2--------------0-------------
    D--0--------------0-------------
    A--0--------------2-------------
    E--0--------------3------------- x2
    
    (sigue sobre la letra)
    Tu maleficio me pretende
    tus ironías me hacen mal
    tu pasaporte se me vence
    tu cintura se escondio en el mar
    
    Me he acostumbrado a obedecerte
    y me prohibiste reclamar
    cuidaste que no me revele
    controlaste hasta mi libertad
    
    Em                        A
    
  • +
    ¡Colabora con nosotros!
    Envíanos tu versión de esta canción

Letra de Se me olvidó
Tu maleficio me pretende
tus ironías me hacen mal
tu pasaporte se me vence
tu cintura se escondio en el mar
Me he acostumbrado a obedecerte
y me prohibiste reclamar
cuidaste que no me revele
controlaste hasta mi libertad
Rompí mi amor sin consultarte
Levanté el ancla en altamar
Me vinieron unas ganas de ignorarte
Me dio amnesia y no te quiero recordar
Se me olvidó cual es tu nombre y cuantas veces me adoraste
se me olvidó en un dos por tres
Se me olvidó las garantías para poder reclamarte
tu boca ya se me secó
Se me olvidó la melodia que mi corazón cantaba
se me hizo agua la razón
Se me olvidó contar las veces que deje la luz prendida
restar tu vida con la mia
Se me olvidó...
cuando decides opinar
de que manera es que te gusta
seducirme hasta verme llorar
Rompí mi amor sin consultarte
Tu lagrima se me valso
Por el borde de tus ojos me vendaste
Felizmente la verdad me conquisto
Se me olvidó cual es tu nombre y cuantas veces me adoraste
se me olvidó en un dos por tres
Se me olvidó las garantías para poder reclamarte
tu boca ya se me secó
Se me olvidó la melodía que mi corazón cantaba
se me hizo agua la razón
Se me olvidó contar las veces que deje la luz prendida
restar tu vida con la mia




[Se me olvidó chords][Se me olvidó cifra]
© LaCuerda.net · aviso legal · privacidad · es · en · pt · contacto