Acordes de Guitarra » G »Generación de Jesús » El sacrificio (Tab)

El sacrificio
Generación de Jesús

Letras, Acordes y Tabs para Guitarra, Bajo y Ukulele

  • Em                 Am   D
    En la cruz del calvario
                   G   Bm  Em
    fue clavado Jesús
                   Am    D
    Y todos mis pecados
            D       Em Em7
    los borró mi Jesús
    
    :::::coro::::
    
             Am    D/C       D
    //El sacrificio que   Jesús
     D           G       Bm       Em
    hizo en la cruz por ti y por mi
                      Am
    Es prueba de su amor
         B7              Em
    Que hoy podemos obtener//
    
    
  • Bm                Em    F#
    En La cruz del calvario-o
                   Bm F#-Bm
    fue clavado Jesus
                  Em   F#
    y todos mis pecados
                    Bm F#-Bm
    los borro mi Jesus
    
    coro
    
    B7                Em    A
       El Sacrificio que Jesus
                 D      F#    Bm
    hizo en la cruz por ti por mi
                     Em
    es prueba de su amor
        F#               Bm
    que hoy podremos obtener
    
    
  • e|-------------------8------8-----8-------7----7-----|
    B|----------------10--10-9----9-8---8-7-8--8-7--7-5--|
    G|--9-8-9---11-12------------------------------------|
    D|---------------------------------------------------|
    A|---------------------------------------------------|
    E|---------------------------------------------------|
    
    
    
    e|----------------8--------8--------------------|
    B|--5-4-5--7-8-10--10-9--9---9-8--7-7-7--5-4-5--|
    G|----------------------------------------------|
    D|----------------------------------------------|
    A|----------------------------------------------|
    E|----------------------------------------------|
    
    
    e|--------------------|
    B|------8-10-8--------|
    G|--9-11-------9-8-9--|
    
  • +
    ¡Colabora con nosotros!
    Envíanos tu versión de esta canción

Letra de El sacrificio
En La cruz del calvario-o
fue clavado Jesus
y todos mis pecados
los borro mi Jesus
El Sacrificio que Jesus
hizo en la cruz por ti por mi
es prueba de su amor
que hoy podremos obtener
Ahora vivo seguro
que con el morare
vivire para cristo
y con el reinare.




[El sacrificio chords][El sacrificio cifra]
© LaCuerda.net · aviso legal · privacidad · es · en · pt · contacto