Tablatura para Guitarra de Generación de Jesús: El sacrificio
Conexión · Inscripción
Letras y Acordes
Pantalla Completa
Imprimir
Versión Texto
Añadir Favorito
Otras Versiones

Mostrar Diagramas
Desfile Automático
Manipular Acordes
Formato del Texto


El sacrificio(TAB)

Generación de Jesús

calidad:
gdje0033
AUTOR: Antonio monzon
ALBUM: El remedio de dios (1974)
Enviado por melquisedec
Dios les bendiga esta es la tablatura del intro
 espero que le sea de bendicion...

e|-------------------8------8-----8-------7----7-----|
B|----------------10--10-9----9-8---8-7-8--8-7--7-5--|
G|--9-8-9---11-12------------------------------------|
D|---------------------------------------------------|
A|---------------------------------------------------|
E|---------------------------------------------------|



e|----------------8--------8--------------------|
B|--5-4-5--7-8-10--10-9--9---9-8--7-7-7--5-4-5--|
G|----------------------------------------------|
D|----------------------------------------------|
A|----------------------------------------------|
E|----------------------------------------------|


e|--------------------|
B|------8-10-8--------|
G|--9-11-------9-8-9--|
D|--------------------|
A|--------------------|
E|--------------------|
Este fichero es trabajo propio de su transcriptor y representa su interpretación personal de la canción. El material contenido en esta página es
para exclusivo uso privado, por lo que se prohibe su reproducción o retransmisión, así como su uso para fines comerciales.

© LaCuerda.net · Aviso Legal · Privacidad