Acordes de Guitarra » G »Generación de Jesús » Mi Dios es real (Tab)

Mi Dios es real
Generación de Jesús

Letras, Acordes y Tabs para Guitarra, Bajo y Ukulele

  • A              A7         D
    Hay cosas que yo no comprendo
           A     E        A Ab A
    Lugares hay, donde no iré
    A            A7      D               A
    Pero esto se y es verdad mi Dios es real
            E  E7         A Ab A
    Por que lo siento en mí ser
    CORO
                 D                A
    //Mi Dios es real, real en mí ser
             F#m            D         E      E7
    el me ha lavado con su sangre carmesí
              A           D              F#m
    su dulce amor es para mí, mi Dios es real
                 E           A
    por que lo siento en mi ser//
    
    Arreglo
    
    
  • e||--------------------------------------------------------------------------|
    B||------------------------------------2-2----2-------------1p0----1p0-------|
    G||-----------------------------------------4---4--2----1s2------2-----2-----|
    D||--2--2-4-3-4-3-2------------------------------------------------------2s4-|
    A||--------------------0h2p0-3p0-0-------------------------------------------|
    E||--------------------------------------------------------------------------|
    
    e||--------------------------------------------------------0-------------|
    B||-------------------5------------------------------------2-------------|
    G||-------2-4--2--4s6----6--4-4----1-4--2------------------2-------------|
    D||--4-4-------------------------2----------2s3-4---4s2----2-------------|
    A||--------------------------------------------------------0-------------|
    E||----------------------------------------------------------------------|
    
               A A7         D
    Hay cosas que yo no comprendo
                        e||-----------------------------|
                        B||--------1p0----1p0-----------|
                        G||---1s2------2-------2--------|
                        D||-----------------------2s4---|
    
  • +
    ¡Colabora con nosotros!
    Envíanos tu versión de esta canción
  • Tutorial
    Mi Dios es real tutorial con guitarra acustica
    7:19

Letra de Mi Dios es real
Hay cosas que yo no comprendo
Lugares hay, donde no iré
Pero esto se y es verdad mi Dios es real
Por que lo siento en mí ser
//Mi Dios es real, real en mí ser
el me ha lavado con su sangre carmesí
su dulce amor es para mí, mi Dios es real
por que lo siento en mi ser//
Arreglo
p.d. Unan las dos partes de arriba las tube que separar por
falta de espacio =D
wola de nuevo este canto lo saque gracias a la ayuda de mi
hermano y amigo IS-BOSET ELI PINEDA
espero les sea de bendicion y si tienen
algun aporte para que suene mejor espero sus comentarios
en (afterjam55@hotmail.com) Que Dios Los Bendiga.




[Mi Dios es real chords][Mi Dios es real cifra]
© LaCuerda.net · aviso legal · privacidad · es · en · pt · contacto