Acordes de Guitarra » G »Generación de Jesús » Cristo vive hoy (Tab)

Cristo vive hoy
Generación de Jesús

Letras, Acordes y Tabs para Guitarra, Bajo y Ukulele

  • e l----0-------3--0---------------------------------------
    b l-0-----0-3--------3--0---------------------------------
    g l------------------------2--0---------------------------
    D|----------------------------------2--0---------------------
    A|----------------------------------------2--0-----0--1--2--
    E|--------------------------------------------------------
    
    Bajeo en Mí:
    Al----------------2--2--4--2-----------------
    El----0--0--4--4-----------------------------
    
    Bajeo en La:
    Dl----------------2--2--4--2-----------------
    Al----0--0--4--4-----------------------------
    
    Bajeo en Si:
    Dl----------------4--4--6--4-----------------
    Al----2--2--6--6-----------------------------
    
    
    
  • E               A
    Cristo vive hoy
                     E
    En la tumba no esta
    A                               E
    El resucito, la victoria El no dio
        B               A
    Conforme a la escritura
                        E  E-A-B
    Al tercer día resucito
    
    E                A
    Su sangre derramo
                       E
    Para darnos salvación
       A                            E
    Su vida entrego, El lo hizo por amor
     B          A
    Cristo vive hoy
                      E   E-A-B
    
  • F               A#
    Cristo vive hoy
                     F
    En la tumba no esta
    A#                              F
    El resucito, la victoria El no dio
        C               A#
    Conforme a la escritura
                        F  F-A#-C
    Al tercer día resucito
    
    F                A#
    Su sangre derramo
                       F
    Para darnos salvación
       A#                            F
    Su vida entrego, El lo hizo por amor
     C          A#
    Cristo vive hoy
                      F   F-A#-C
    
  • e|----0-0-----3-0------------------------------------------
    b|--0-----3-0-----2-0--------------------------------------
    g|--------------------2-0----------------------------------
    D|------------------------2-0------------------------------
    A|----------------------------2-0--0--1-2------------------
    E|---------------------------------------------------------
    
    bajeo
    e-------------------------------------------------------------
    b-------------------------------------------------------------
    g-------------------------------------------------------------
    D-------------------------------------------------------------
    A-----------------2-2---4-2-------------------2-2---4-2-------
    E---0-0---4-4------------------0-0----4-4---------------------
    
    e-------------------------------------------------------------
    b-------------------------------------------------------------
    g-------------------------------------------------------------
    D-----------------2-2----4-2------------------2-2----4-2------
    A---0-0----4-4------------------0-0---4-4---------------------
    
  • +
    ¡Colabora con nosotros!
    Envíanos tu versión de esta canción

Letra de Cristo vive hoy
Cristo vive hoy
En la tumba no esta
El resucito, la victoria El no dio
Conforme a la escritura
Al tercer día resucito
Su sangre derramo
Para darnos salvación
Su vida entrego, El lo hizo por amor
Cristo vive hoy
A la muerte El venció
Si aceptas a Jesús
Vida eterna El te dará
Y nunca, nunca más tu solo estarás
Pues Cristo esta a tu lado
Tu amigo fiel será
una vez mas estoy aqui, para compartir unacancion mas
aprovecho esta ocasion para mandar un gran saludo a todos los
hermanos de Tulum, quintana roo.
si quieren enviarme sus acordes de la generacion u otros grupos
no duden en hacerlo seran bienvenidos. ah se me estaba pasando
por alto, dedicar esta cancion a un hermano de guatemala: abdiel
lopez, que Dios siga bendiciendo a tu iglesia.
pd: pronto recibiran otras noticias de mi, por ahora, chao.




[Cristo vive hoy chords][Cristo vive hoy cifra]
© LaCuerda.net · aviso legal · privacidad · es · en · pt · contacto
DINAMICO