Acordes de Guitarra » G »Garras de amor » Las garras de tu amor (Tab)

Las garras de tu amor
Garras de amor

  • Tablatura
            Gm                       F                       D
     E----------------------------------------------------------
     B-------------4-3-------------3-1---------3-1---------4-3--
     G--0-0-3-0-3-0-----0-0-3-0-3-0--------2-2---------2-2------
     D----------------------------------3-3-3-3-----3-3-3-3-----
     A----------------------------------------------------------
     E----------------------------------------------------------
    
                           D
     E--10-10--8--8---6-6--5-5--
     B--11-11--10-10--8-8--7-7--
     G--------------------------
     D--------------------------
     A--------------------------
     E--------------------------
    
    =INTRO (Parte 2)=
        Gm                             Cm
     E--10-8-10-10-11-10-10---------10-13-11-11-11-10-11--
     B-----------------------8-10-11----------------------
    
  • +
    ¡Colabora con nosotros!
    Envíanos tu versión de esta canción

Letra de Las garras de tu amor
'¡Garras...!' '¡... de amor!'
=ESTROFA=
TE LO JURO, POR DIÓS TE LO JURO,
QUE SIN TI MI AMOR... NO PUEDO VIVIR...
TE LO JURO, QUE ES LA PASIÓN QUE ME QUEMA
PERO TAMBIÉN ES VENENO QUE ME ATREVO A PROBAR... POR TI
ÁMAME... CON LAS GARRAS DE TU AMOR,
QUIÉREME, BÉSAME QUE NO PUEDO VIVIR SIN TI...
ÁMAME... QUE ESTOY MURIENDO DE DOLOR,
QUIÉREME, BÉSAME QUE NO PUEDO VIVIR SIN TI...
*Se repite el punteo de la INTRO (Parte 2)*
*Se repite la ESTROFA*
*Se repite el CORO*
=FINAL=



© LaCuerda.net · aviso legal · privacidad · contacto
DINAMICO