Acordes de Guitarra » G »Garras de amor » Bailalo (Tab)
  • Tablatura
    E---------------------------------------------------------------
    B---------------------------------------------------------------
    G---------------------------------------------------------------
    D--------------------------------------------------------3-3----
    A----------------------3-3-------4-5-5-3-3-5-3-3-5-3-5-5----5v--
    E-5-5-3-3-5-3-3-5-3-5-5---5v--3-5-------------------------------
    
    E----------------------------------------------------------------
    B----------------------------------------------------------------
    G----------------------------------------------------------------
    D-------6-6-9--9-6----------6-6-9-6------------------------------
    A-7-7-7-----------7---7-7-7---------7----------------------------
    E----------------------------------------------------------------
    
    DESPUES LA GUITARRA MARCA (*)
    
            Am
    E---------------------
    B---------------------
    G---4-5-5-4-5-4-------
    
  • Tablatura
              |  G A R R A S   D E   A M O R  |
              |      (VERSIÓN ORIGINAL)       |
              |_______________________________|
    
    
    =INTRO 1ª parte= (Punteo)
           Am                 Am
     E----------------------------------------
     B-----1-1-1-1-1-0--------1-1-1-1-1-0-----
     G----2-----------2------2-----------2----
     D---2-------------2----2-------------2---
     A--0------------------0------------------
     E----------------------------------------
    
          Dm                 Dm
     E-----1-1-1-1-1-0--------1-1-1-1-1-0-----
     B----3-----------3------3-----------3----
     G---2-------------2----2-------------2---
     D--0------------------0------------------
     A----------------------------------------
    
  • +
    ¡Colabora con nosotros!
    Envíanos tu versión de esta canción

Letra de Bailalo
DESPUES LA GUITARRA MARCA (*)
AQUI MARCA EL BAJO CON LAS
TIMBALETAS CON CORTES
DESPUES DE NUEVO LA GUITARRA (*)
DESPUES EL BAJO CON LA TIMBALETA CON CORTES
AHORA ENTRA LA VOZ
VERSO:
Yo miraba que tu cuerpo se movia
con el ritmo bailalo,bailalo
tu cintura va girando al ritmo de
esta cumbia muy especial yo quiero bailar
PRE-CORO:
Y tu me vuelves loco loco
cuando bailas esta cumbia
bailalo para miiiii
Por eso baila,baila conmigo
baila baila mi amor
quiero que estes conmigo
esta noche los dos
baila baila conmigo
dame tu corazon
porque si no es contigo
yo me muero de amor
DESPUES VUELVE ARRIBA DONDE PARTE LA GUITARRA (*)
Y TODA LA CANCION DE NUEVO
Y AHI VIENE EL SOLO QUE ES ASI:
DESPUES SE REPITE EL CORO DE NUEVO Y SE REPITE EL SOLO PERO CON VARIACIONES
AHI SE VA ESTA CANCION



© LaCuerda.net · aviso legal · privacidad · contacto
DINAMICO