Acordes de Guitarra » G »Garras de amor » Amor Prohibido (Tab)

Amor Prohibido
Garras de amor

Letras, Notas, Punteos, Tablaturas y Acordes de Guitarra (Tabs & Chords)

  • Tablatura
       SOL                          MIm
    E--------------------------5-- ----------------------------
    G---6--6-5-6--6-5-6--6-5-6---- --6--6-5-6--6-5-6--6-5-6----
    B----------------------------- -------------------------7--
    D----------------------------- ----------------------------
    A----------------------------- ----------------------------
    E----------------------------- ----------------------------
    
    
       LAm                   DO                  RE
    E---12--10-12-10------10----------------------------------
    G------------------13----13---12-13-12-10----10-----------
    B-----------------------------------------12-------12-11--
    D---------------------------------------------------------
    A---------------------------------------------------------
    E---------------------------------------------------------
    
    
       SOL                          MIm
    E--------------------------5-- ------------------------6--
    
  • +
    ¡Colabora con nosotros!
    Envíanos tu versión de esta canción

Letra de Amor Prohibido
=Estrofa=
CÓMO HE PODIDO ENAMORARME DE TI
Y AHORA ESTOY SUFRIENDO... ESTA SITUACIÓN...
ERES LA MUJER QUE YO HABÍA SOÑADO EN MI VIDA
Y YA TIENES DUEÑO, NO ME PERTENECES,
QUE DESILUCIÓN...
AMOR PROHIBIDO, AMOR, ENTRE TU VIDA Y YO,
NUNCA PODRÁS HALLAR CARIÑO DE VERDAD...
AMOR PROHIBIDO, AMOR, QUE TRISTE ES PARA MÍ,
TÚ ERES CASADA Y YO NO TE PODRÉ OLVIDAR...
(se repite la Intro)
=Estrofa=
ME HICISTE CREER QUE ERA VERDADERO NUESTRO AMOR,
TAN SÓLO FINGÍAS... CON MI CORAZÓN...
DIBUJASTE UN MUNDO QUE ERA PERFECTO Y EN SILENCIO SÓLO JUGABAS,
YO ERA UNA AVENTURA... DE MÍ TE BURLABAS...
AMOR PROHIBIDO, AMOR, ENTRE TU VIDA Y YO,
NUNCA PODRÁS HALLAR CARIÑO DE VERDAD...
AMOR PROHIBIDO, AMOR, QUE TRISTE ES PARA MÍ,
TÚ ERES CASADA Y YO NO TE PODRÉ OLVIDAR...
(se repite Intro)
AMOR PROHIBIDO, AMOR, ENTRE TU VIDA Y YO,
NUNCA PODRÁS HALLAR CARIÑO DE VERDAD...
AMOR PROHIBIDO, AMOR, QUE TRISTE ES PARA MÍ,
TÚ ERES CASADA Y YO NO TE PODRÉ OLVIDAR...
(se repite Intro)
=Final=
[-][-][-][-][-][-][-][-][-][-][-]FIN[-][-][-][-][-][-][-][-][-][-]
_____________________________________________________________________
| |
| Aquí te van algunas indicaciones básicas para tocar la canción: |
|_____________________________________________________________________|
| |
|Para que el tema suene bien, te recomiendo ejecutar los acordes y los|
|cambios de acorde en el mismo momento en que aparecen, por eso logré|
|que las ubicaciones de cada acorde sean precisas, tal como puse los|
|acordes sobre cada sílaba tonal de cada verso. Así te será más fácil |
|ubicar el acento musical y además obtendrás melodía y armonía similar|
|a la versión original de este grandioso grupo. |
|_____________________________________________________________________|
| | |
| Universal - Americana | |
|_______________________|
ACORDES USADOS EN ESTA CANCIÓN:
Los números corresponden al traste de la guitarra donde
se pulsa la cuerda señalada,la letra X significa que no
se pulsa la cuerda indicada.
____________________________________________________
| |
| Equivalencia de notas sostenidas con notas bemoles |
|____________________________________________________|
| |
|____________________________________________________|
...Aquí les va uno de los últimos éxitos de esta genial banda tropical,
una de los más recientes cumbias del grupo Garras de Amor. Espero que
les guste, los acordes son súper fáciles (por lo menos los del coro).
Cuídense, saludos desde Lo Prado.
+EN MEMORIA DE ANDREITA SUSANA MUÑOZ ALARCÓN+
(*Abril 20,1989 - Diciembre 10,2004+)
*Que el Señor te tenga consigo hermanita mía*
*Que el Señor les Bendiga*
ENERO, 2008 ...RODRIGO



© LaCuerda.net · Aviso Legal · Privacidad