Acordes de Guitarra » G »Garras de amor » Apasionados (Tab)

Apasionados
Garras de amor

  • Tablatura
       Bm         G           A       F#
    E-------------3--2-0-2-0--0-------2-3-2-0-----
    B--0-2-3-3-2-0-------------2-0-3-2-----2-3-0--
    G---------------------------------------------
    D---------------------------------------------
    A---------------------------------------------
    E---------------------------------------------
    
       Bm         G           A   F#   Bm
    E-------------3--2-0-2-0--2---0--------
    B--0-2-3-3-2-0-------------2---3-2--0--
    G---------------------------3----------
    D--------------------------------------
    A--------------------------------------
    E--------------------------------------
    
         Bm            A                 Bm
    E--------------------- -----------------
    B--0-3-2-0-3-2-0-0-2-- --2-0-2-0-----0--
    G---------------2---2- -2---2---2-0-2---
    
  • +
    ¡Colabora con nosotros!
    Envíanos tu versión de esta canción

Letra de Apasionados
'¡Garras... ..de Amor!'
=ESTROFA=
TODO ES PASIÓN Y LOCURA
CUANDO TE BESO MI AMOR,
TODO ES PASIÓN Y LOCURA
CUANDO HACEMOS EL AMOR...
=PRECORO=
NUNCA, YO NUNCA PODRÉ OLVIDAR...
LO QUE SIENTO POR TI,
SÉ QUE TÚ ME AMAS, LO SÉ MI AMOR,
NUNCA, NUNCA, NUNCA TE PODRÉ OLVIDAR...
APASIONADOS, ENAMORADOS,
APASIONADOS, ENAMORADOS,
CUANDO TE MIRO A LOS OJOS
TE DIGO TE AMO MI AMOR...
APASIONADOS, ENAMORADOS,
APASIONADOS, ENAMORADOS,
TENERTE MÍA PARA SIEMPRE, YO SERÉ
EL DUEÑO DE TU CORAZÓN...
*Se repite los punteos de la INTRO*
*Se repite la ESTROFA*
*Se repite el PRECORO*
*Se repite el CORO 1 y el CORO 2*
*Se repite el CORO 2*
=FINAL=



© LaCuerda.net · aviso legal · privacidad · contacto
DINAMICO