Acordes de Guitarra » G »Los Gardelitos » Sortilegio de arrabal (Tab)

Sortilegio de arrabal
Los Gardelitos

Letras, Acordes y Tabs para Guitarra, Bajo y Ukulele

  • intro :LAm-REm-MI-LAm-REm-DO-MI-LAm-
    SOL-FA-LAm--SOL.FA-MI-
    LAm-SOL-lamfa-SOL..
    
    1
           LAm                     SOL
    Los faroles de Clarita tienen ese resplandor
           FA                  DO
    que ilumina como un sol la noche
           REm
    al fantasma de ese padre
              LAm              SOL
    que no pudo conocer, y vivía fuera de la ley.
     LAm                  SOL   FA          DO
    Pero que nadie se espante si allá por Parque Patricios,
       REm                    LAm                     SOL
    un vivo por tirarle un laburo quiere tocarle el culo.
    
    2
    
    
  •  e|---------------------------|---------------------------|
     B|---------------------------|---------------------------|
     G|---5----5------4---4h5-4---|---2----2------1---1h2-1---|
     D|-7----7---7--5---5-------5-|-3----3---3--2---2-------2-|
     A|---------------------------|---------------------------|
     E|---------------------------|---------------------------|
    
     e|---------------------------|-------5---|
     B|---------------------------|-----5-----|
     G|---2----2------4---4h5-4---|---5-------|
     D|-3----3---3--5---5-------5-|-7---------|
     A|---------------------------|-----------|
     E|---------------------------|-----------|
    
    
    
         Am                        G
     Los faroles de Clarita tienen ese resplandor
            F                    C
     que ilumina como un sol de noche
    
  •     Am          G              F            E
     e|---------------------------|---------------------------|
     B|---------------------------|---------------------------|
     G|---5----5------4---4h5-4---|---2----2------1---1h2-1---|
     D|-7----7---7--5---5-------5-|-3----3---3--2---2-------2-|
     A|---------------------------|---------------------------|
     E|---------------------------|---------------------------|
    
        F          G                Am
     e|---------------------------|-------5---|
     B|---------------------------|-----5-----|
     G|---2----2------4---4h5-4---|---5-------|
     D|-3----3---3--5---5-------5-|-7---------|
     A|---------------------------|-----------|
     E|---------------------------|-----------|
    
         Am                        G
     Los faroles de Clarita tienen ese resplandor
            F                    C
     que ilumina como un sol de noche
    
  • +
    ¡Colabora con nosotros!
    Envíanos tu versión de esta canción

Letra de Sortilegio de arrabal
1
Los faroles de Clarita tienen ese resplandor
que ilumina como un sol la noche
al fantasma de ese padre
que no pudo conocer, y vivía fuera de la ley.
Pero que nadie se espante si allá por Parque Patricios,
un vivo por tirarle un laburo quiere tocarle el culo.
2
Cae la noche ya, bajo tu sortilegio,
luna del arrabal, que aprisiona mis sueños.
Pálida luz que se alzo con mi voz,
espejismo mas allá de la razón, solo con mi corazón.
1
La sonrisa de rosario, tiene ese no se que
y es tan dulce como la miel.
Por patear calles de tierra le quieren hacer creer,
que su destino es dejarse someter.
Pero que nadie se espante si allá por Puente La Noria,
al macho se le escapa una mano y la deja llorando.
2
Cae la noche ya, bajo tu sortilegio, luna del arrabal,
que aprisiona mis sueños.
luna del arrabal, que aprisiona mis sueños.
Pálida luz que se alzo con mi voz,
espejismo mas allá de la razón, solo con mi corazón.
1
El encanto de Maria trajo tanta desnudez,
que se armo en el vecindario un alboroto.
En el barrio se comenta que eligió
por vocación la profesión mas antigua del mundo.
Pero que nadie se espante, si allá por Constitución .
la yuta obliga a las putas a vender milonga.
2
Cae la noche ya, bajo tu sortilegio,
luna del arrabal, que aprisiona mis sueños.
Pálida luz que se alzo con mi voz
espejismo mas allá de la razón, solo con mi corazón
dedicado a eze !!!!(el gede de barrio arzeno)




[Sortilegio de arrabal chords][Sortilegio de arrabal cifra]
© LaCuerda.net · aviso legal · privacidad · es · en · pt · contacto