Acordes de Guitarra » G »Los Gardelitos » Nadie Cree En Mi Canción (Tab)

Nadie Cree En Mi Canción
Los Gardelitos

Letras, Acordes y Tabs para Guitarra, Bajo y Ukulele

  • Intro: G-Bm-Am-G
    
            G                 Bm            Am             G                       
    Las noches son largas, cuando te vas de tu hogar
           G                  Bm       Am               G                  
    Tus padres te esperan pero seguis sin ver atrás
    
      Em                            Bm
    Sola en el viento te anunciaras
    Em                             Bm          
    Sola entre el humo de la ciudad
    Em                             C                      
    Y aunque no veas el sol en mi
             G               D
    En ti yo voy a estar
    
                  Am                                G
    Para hablarte de las cosas que veras mañana 
    Am                               G
    Para darle fuerza a tu corazon 
    
  • Acá va el solo de nadie cree en mi canción y el rifeito del final
    Pedido x muchos para q lo corrija
    Cualquier duda o consulta e23g11t89@hotmail.com
    
    Solo:
    e|--------------------------------------------------------------------|
    B|--------------------------------------------------------------------|
    G|--------------------------------------------------------------------|X2
    D|----5-7-5-5h7-5-5h7-5-7--7/9-7-9-7h9-7-5-5h7-5-5h7--5h7-5---5-5h7-5-|
    A|-/7-------------------------------------------------------7---------|
    E|--------------------------------------------------------------------|
    
    e|----------|------------------------------------------------------|
    B|----------|----15------------------------------15---15-----------|
    G|----------|-14e---14br-12----------12------------14e--14br-12----|
    D|-9e-9-7-5-|---------------14-12h14---14-12-14-----------------14-|
    A|----------|------------------------------------------------------|
    E|----------|--------------------------------------------------
  • Intro : G - Bm - Am - G
    
    G              Bm            Am           G
    Las noches son largas cuando te vas de tu hogar
    tus padres esperan pero seguis sin ver atras
    Em                   Bm
    sola en el viento te anunciaras
    sola entre el humo de la ciudad
    Em                C            G            D Dsus4 D Dsus2 D
    y aunq no veas el sol en mi en ti yo voy a estar
    
    Am                            G
    Para hablarte de las cosas q veras mañana
    para darle fuerzas a tu corazon
    naranaranaranaranaranaranara
    Am                       C    D Dsus2 D
    naranaranaranaranarana ohoh
    
    Puente: Arpegia solo C - D Dsus4 D Dsus2 - D
            Arpegia solo C - D Dsus4 D Dsus2 - D - C
    
  • Intro:
    
    G-----------|
    D-----------|
    A-----2-----|
    E-3-------5-|
    
    
    Las noches son largas…
    
    G-------|-------|-------|----------|--------------|
    D-------|---4---|--- ---|---5------|--------------|
    A-------|-2---2-|-------|--------x2|--3/10-10-9---|
    E-3-3-3-|-------|-5---5-|-3----3---|--------------| x2
    
    Sola en el viento te anunciaras..
    G-----------|-------------|
    D-----------|-------------|
    A--7-7-9/10-|-2-0-2/3-2/0-|
    E-----------|-------------|x2
    
    Y aunque no veas el sol en mi…
    
    G-----------|--------------|---------------7------|
    D--2-2--2---|--------------|-------------7---7----|
    A-----------|3-3-3---------|-5-5-5-5-5-5-------5--|
    E-----------|-------3-3-3--|----------------------|
    
    
    Para hablarte de …
    
    G--------------|
    D--------------|
    A-----------5--|
    E-5-5-3-3-3---3|x3
    
    G--------------------|
    D--------------------|
    A-----3-3-3-3-5-5-5-5|
    E-5-5----------------|
    
    G-------------------------|------------7-----|
    D-------------------------|----------7--7----|
    A-3-3-3-------3-3-3-------
  • +
    ¡Colabora con nosotros!
    Envíanos tu versión de esta canción

Letra de Nadie Cree En Mi Canción
Las noches son largas, cuando te vas de tu hogar
Tus padres te esperan pero seguis sin ver atrás
Sola en el viento te anunciaras
Sola entre el humo de la ciudad
Y aunque no veas el sol en mi
En ti yo voy a estar
Para hablarte de las cosas que veras mañana
Para darle fuerza a tu corazon
Siempre yara nara nera nera nara
Oh nara nara nara oh oh oh
C-G(2 veces)
Las calles del barrio te ven partir sin entender
Hoy sabes que nada puede calmar tu soledad
Es que nadie cree en mi cancion
Es que nadie espera nada de mi
Todas estas mierdas me hace pensar
Que dios me olvido
Y por eso es que quiero habrir mi cuerpo
A las lluvias tibias del camino aquel
Donde mueren estos negros pensamientos
Donde nace el viento de la libertad
Uh libertad, siempre libertad
Ouho oho....
Es tarde las sombras cubrieron ya, la gran ciudad
La luna tu amiga toda la noche te acompañara
Y sin darte cuenta amanecera
Y un nuevo dia nacera de ti
Si no te arrepientes de mirar el sol
Y al fin ser una mujer
Abriendo la puerta que duerme en tu mente
Y golpeando siempre, fuerte y sin parar
Como sopla un angel perdonando todo
Como sopla el viento de la libertad
Uh .libertad, siempre libertad
Uo oh oh oh




[Nadie Cree En Mi Canción chords][Nadie Cree En Mi Canción cifra]
© LaCuerda.net · aviso legal · privacidad · es · en · pt · contacto
DINAMICO