Acordes de Guitarra » G »Los Gardelitos » Los Querandíes (Tab)

Los Querandíes
Los Gardelitos

Letras, Acordes y Tabs para Guitarra, Bajo y Ukulele

  • Em G Em G 
    C G C G 
    D C G
    
    Em                         G
    Somos los Querandíes, herederos de esta tierra. 
    Em                            G
    Somos nietos del indio que mataron esos hombres de mierda
    C                           G
    Se llevaron el oro, nos quitaron nuestras tierras,
    C                        G
    pero nunca pudieron con la naturaleza.
    D                             C                G
    No necesito las luces ni los lujos de la ciudad.
    
    Tengo mujer y amigos y muchas cosas que dar,
    tengo un cielo claro y una luna para mirar.
    Tengo un caballo loco que me lleva a cabalgar,
    para calmar mis penas dando vueltas sin parar.
    No necesito las luces ni los lujos de la ciudad.
    
  • intro (Em-G)x2 (C-G)x2 (D-?-C-G)
    
       Em   G   Em  G    C    G  C    G   D    ?   C    G
    
    1|-7---10---7---10---8---10--8---10---10---9---8---10-|
    2|-8---12---8---12---8---12--8---12---10---9---8---12-|
    3|-9---12---9---12---9---12--9---12---11---11--9---12-|
    4|-9---12---9---12---10--12--10--12---12---12--10--12-|
    5|-7---10---7---10---10--10--10--10---12---12--10--10-|
    6|-7---10---7---10---8---10--8---10---10---9---8---10-|
    
    Em                   G
    Somos los querandies herederos de esta tierra
    Em                     G
    somos nietos del indio que mataron estos hombres de mierda
    C                       G
    se llevaron el oro nos quitaron nuestras tierras
    C                       G
    pero nunca pudieron con la naturaleza
    D                     ?       C                G
    
  • Intro (guitarra sola, el bajo entra en C)
    
    
    
    G|-----------------------------------------------|
    D|-----------------------------------------------|
    A|-3-3-3-3-3-3-3---------------------------------|
    E|---------------3-3-3-3-3-3-3-3-3-3-3-3-3-------|
    
    
    G|----------------------------------------------------------|
    D|----------------------------------------------------------|
    A|----------------------------------------5-5--5-3-2--------|  X2
    E|-0--0-0-0-0-0-0-0-0-0--0---3--3-3-3-3-3-------------------|
    
    Somos los Querandíes, herederos de esta tierra
    Somos nietos del indio que mataron esos hombres de mierda
    
    G|-----------------------------------------------------|
    D|--------------5-5--5-3-2-----------------------------|
    A|--3-3-3-3-3-3---------------------------5-5--5-3-2---|  X2
    E|--------------------------3-3-3-3-3-3----------------|
    
    Se llevaron el oro, nos quitaron nuestras tierras
    Pero nunca pudieron con la naturaleza
    
    G|-----------------------------------------------------------------
  • Somos los querandies, herederos de esta tierra
    -------------------------------------------------
    -------------------------------------------------
    *7-7-7--5--7--5-------------------------2-5---- -
    ---------------------3--3-3--0-3----3------------
    
    somos nietos del indio, que mataron esos hombres de mierda
    Em                      G
    -------------------------------------------------
    -------------------------------------------------
    *7-7-7--5--7--5-------------------------2-5---- -
    ---------------------3--3-3--0-3----3------------
    
    
    
    
    se llevaron el oro,        nos quitaron nuestras tierras
    --------------------------------------------------------------------
    ------------------2-2-2-2-----------------------------------------
    ---3-3 3 ---3---------------5--3--------------------------2---5-
    ---------------------------------------3--3-3-0-3----3-------------
    
    pero nunca pudieron                 con la naturaleza
    C                                             G
    ----------------------------------
  • +
    ¡Colabora con nosotros!
    Envíanos tu versión de esta canción

Letra de Los Querandíes
Somos los Querandíes, herederos de esta tierra.
Somos nietos del indio que mataron esos hombres de mierda
Se llevaron el oro, nos quitaron nuestras tierras,
pero nunca pudieron con la naturaleza.
No necesito las luces ni los lujos de la ciudad.
Tengo mujer y amigos y muchas cosas que dar,
tengo un cielo claro y una luna para mirar.
Tengo un caballo loco que me lleva a cabalgar,
para calmar mis penas dando vueltas sin parar.
No necesito las luces ni los lujos de la ciudad.
Tengo plantas y flores, un rancho humilde es mi hogar,
tengo los animales y estrellas para mirar.
Sólo le pido a los dioses que no llueva sin parar,
que llueva los necesario como para cosechar,
porque si el agua no para nos quedamos sin hogar.
Siento pena del hombre que no puede descansar
de los que viven corriendo y no saben contemplar
la inmensidad del cielo, las estrellas y el mar,
que todo lo más lindo no se puede comprar.
Creen en el dinero, ese dios artificial.
Tienen la mirada triste y no paran de cantar,
saben lo necesario y no quieren saber más,
viven agradeciendo a la tierra lo que les dá,
y como la tierra es buena, lo que piden les dá.
No necesitan las luces ni los lujos de la ciudad.
Sé que un día los dioses me vendrán a buscar,
que la vida y la muerte tienen que pasar,
pero no tengo miedo, ni quiero eternidad,
y agradezco a la vida esta oportunidad...
...esta oportunidad de amar.
Somos los Querandíes...
"Con esta letra nos cogimo a todos"




[Los Querandíes chords][Los Querandíes cifra]
© LaCuerda.net · aviso legal · privacidad · es · en · pt · contacto