Acordes de Guitarra » G »Los Gardelitos » Anabel (Tab)

Anabel
Los Gardelitos

Letras, Acordes y Tabs para Guitarra, Bajo y Ukulele

  • Intro: [D - Dsus4 - D - D2 - D] x2
           [G - D - Dsus4 - D - D2 - D] x2
           [A - G - D - Dsus4 - D - D2 - D]
    
    
    Estrofa:
    G                 D - Dsus4 - D - D2 - D
    Anabel, fuma marihuana
    G                    D - Dsus4 - D - D2 - D
    Anabel, tiene una hermana
              A                   G
    que esta sola, triste y deprimida
                 D - Dsus4 - D - D2 - D
    mirando la T.V.
    
    
    Estrofa:
    Anabel, sueña con ser libre,
    se va a la esquina, se va con los pibes,
    ellos saben que su amor es de verdad.
    
  • RE - REsus2-RE-REsus4-RE
    RE - REsus2-RE-REsus2-RE-REsus2-RE- G
    RE - G - RE - LA-G- RE - REsus2-RE-REsus4-RE
    
    
    SOL                REm REsus2-RE-REsus4-RE
    Anabel, fuma marihuana
    SOL                    RE - REsus2-RE-REsus4-RE
    Anabel, tiene una hermana
              LA                 SOL
    que esta sola, triste y deprimida
                  RE - REsus2-RE-REsus4-RE
    mirando la T.V.
    
    SOL                      RE - REsus2-RE-REsus2-RE
    Anabel, sueña con ser libre,
    SOL                                 RE - REsus4- RE
    se va a la esquina, se va con los pibes.
           LA            SOL          REm REsus2-RE-REsus4-RE
    Ellos saben que su amor es de verdad
    
  • Intro: [D - Dsus4 - D - D2 - D] x2
           [G - A - D -  Dsus4 - D - D2 - D]
           [D - Dsus4 - D - D2 - D] x2
    
    _____________________________________________________
    
    RASGUIDO PARA [D - Dsus4 - D - D2 - D]***(es bastante rápida)***
    
    
    [------|D|-----|Dsus4|--D-|-D2|--|D|-]
    _____________________________________
    e//-V--V--V-A-V|-A---|-A--|-A-|--A---] V = rasguido para abajo.
    B//-V--V--V-A-V|-A---|-A--|-A-|--A---]
    G//-V--V--V-A-V|-A---|-A--|-A-|--A---] A = rasguido para arriba.
    D//-V--V--V-A-V|-A---|-A--|-A-|--A---]
    A//------------|-----|----|---|------]
    E//------------|-----|----|---|------]
    
    
    ______________________________________________________
    
  • Intro: (D G)x2 A G D
    
    e|-2-2-2-3-2-0-|   |-2/3-|--|-3-2-3---------------------------|
    B|-3-3-3-3-3-3-|   |-2/3-|--|-3-2-3----------------10---------|
    G|-2-2-2-2-2-2-|X2 |-3/4-|x2|-4-3-4--7-7----7-9-9^----9br-7-7-|
    D|-0-0-0-0-0-0-|   |-4/5-|--|-5-4-5--7-7-7/9---------------9--|
    A|-------------|   |-4/5-|--|-5-4-5--5-5----------------------|
    E|-------------|   |-2/3-|--|-3-2-3---------------------------|
    
    e|-3-3-3-|                   |-9^-7---------|
    B|-3-3-3-|aca fijense        |--------------| Y desp de esto rasguea
    G|-4-4-4-|cuantos tiempos    |-------9br-7--| La, Sol y Re como en la
    D|-5-5-5-|lleva sol          |--------------| Letra
    A|-5-5-5-|y desp hace        |--------------|
    E|-3-3-3-|                   |--------------|
    
    G                  D
    Anabel fuma marihuana
    G                  D
    Anabel tiene una hermana
    
  • G|----------------------------|
    D|----------------------------|
    A|----------------------------|
    E|-/10---10-10-10-10----------|
    
    
    G|--------------------------------------------|
    D|--------------------------------------5-----|
    A|------5--5--------3--5--5------5--5-7-------|  X2
    E|-3--3------3--3-5---------5--5--------------|
    
    
    G|-----------------------------7-7--5-----------|
    D|---------------------------7--------7-5-------|
    A|---------------------5-5-5--------------------|
    E|-5--5-5-5--3--3-3-3---------------------------|
    
    
    Anabel, fuma marihuana
    Anabel, tiene una hermana
    Que esta sola, triste y deprimida
    Mirando la TV.
    
    Anabel, sueña con ser libre
    Se va a la esquina, se va con los pibes
    Ellos saben que su amor es de verdad
    
    ESTRIBILLO
    
    G|-------------------------------4-7-7-4--------|
    D|---------------------------4-7---------7-4----|
    A|-2-2-2-2-2-2-2-2-2-2-2---5--------------------|  X2
    E|----------------------------------------------|
    
    Nunca la vi llorar
    Siempre esta loca
    No la quie
  • +
    ¡Colabora con nosotros!
    Envíanos tu versión de esta canción

Letra de Anabel
Anabel, fuma marihuana
Anabel, tiene una hermana
que esta sola, triste y deprimida
mirando la T.V.
Anabel, sueña con ser libre,
se va a la esquina, se va con los pibes.
Ellos saben que su amor es de verdad
Nunca la vi llorar
siempre esta loca
No la puedo cambiar
esa es su historia
Dulce niña, vuelve a casa
tu padre cambio.
Uh, oh, tu padre cambio




[Anabel chords][Anabel cifra]
© LaCuerda.net · aviso legal · privacidad · es · en · pt · contacto