Acordes de Guitarra » G »Los Gardelitos » El ultimo hombre del bar (Tab)

El ultimo hombre del bar
Los Gardelitos

Letras, Acordes y Tabs para Guitarra, Bajo y Ukulele

  • A7 D7   x 2
    E7 D7   x 2
    
    A7
    Donde te metiste nena
                       D7
    no te puedo encontrar
    A7                  
    estoy tirado en la calle
                  D7
    todo me sale mal
    Ya son las seis
    esta cerrando y no pude vajar
    
    E7             D7
    Soy el ultimo hombre 
                     A7
    que queda en el bar
    E7                  D7
    hay si tan solo supiera
    
  • E-|-------------------5--5--5--5------------------------------|
    B-|-------------------5--8--8--7------------------------------|    x 2
    G-|-------------------6--6--6--6------------------------------|
    D-|------7--7--7------7--5--5--5----7--7--9--7--9--7--7--9----|
    A-|------7--7--7------7--7--7--7----5--5--5--5--5--5--5--5----|
    E-|------5--5--5------5--5--5--5------------------------------|
    
    
    (Cuando están en A5, antes de pasar a D5
    hace un deslizamiento 2 veces de G#5 a A5
    durante las estrofas NO en estribillo).
    
    A5
    Donde te metiste nena
                       D5
    no te puedo encontrar
    A5
    toda la noche te estube
                  D5        riff 1
    esperando en el bar
    
  • Dejo el tema de los gardeles el ultimo hombre del bar la versión
    en vivo del cd ahora es nuestra la ciudad.
    
    
    
    Donde te metiste nena ......
    G|---------------------------------------------------------|
    D|----------------------------------------------4-4-5-5-6-7|
    A|-----------------------------5-3-2-3-2-3-5-5-------------|
    E|-5-3-2-3-2-3-5-5-3-2-3-2-3-------------------------------|
    
    los repite varias veces
    
    
    estribillo
    
    soy el ultimo hombre .....
    
    G|---------6--------------4------------------------------|
    D|-----6-9----------4-4-7------------------7-5---7-5-----|
    A|--7----------5-5-----------------------------7-----7---|
    E|-----------------------------5--5--3--5----------------|
    
    
    
    Escuchá la canción para saber el ritmo.
    
    
    Cualquier duda o sugerencia manden un mail o agreguenme.
    gonzy_rnr@hotmail.com
  • +
    ¡Colabora con nosotros!
    Envíanos tu versión de esta canción

Letra de El ultimo hombre del bar
Donde te metiste nena
no te puedo encontrar
estoy tirado en la calle
todo me sale mal
Ya son las seis
esta cerrando y no pude vajar
Soy el ultimo hombre
que queda en el bar
hay si tan solo supiera
donde ire a parar.
Pero no tengo dinero
ni siquiera un lugar
estoy tirado en la calle
to me sale mal,
me podria salvar.
Pero me dejaste tirado
y me las vas a pagar [turra]
Soy el ultimo idiota
qu queda en el bar.
Riff
( solo )
Donde...
Soy el...
( intro + riff hasta que termina el tema )




[El ultimo hombre del bar chords][El ultimo hombre del bar cifra]
© LaCuerda.net · aviso legal · privacidad · es · en · pt · contacto
DINAMICO