Acordes de Guitarra » F »Los Fundamentalistas del Aire Acondicionado » Pabellón Séptimo (Tab)

Pabellón Séptimo
Los Fundamentalistas del Aire Acondicionado

Letras, Acordes y Tabs para Guitarra, Bajo y Ukulele

  • D#
    Me asfixio! Dios!
                        A#m           G#   A#m
    Pienso en mi cara.. se está quemando, ahora, mi cara... Dios!
    D#                            A#m                       G# A#m
    Una explosión y los colchones se prenden fuego y nos quemamos vivos...
    D#                             A#m               G# A#m
    Quiero salir, quiero escapar, las puertas siguen encerrojadas
    D#                           A#m
    El pabellón... en un segundo se nubló todo y ya no vemos nada más...
    
    
    Estribillo.
    
    
    
    F#                              A#m
    Pruebo trepar hasta un ventanal buscando el aire y me balean fiero
    F#                              A#m
    Viejita, amor, hijas y amigas, buscan noticias en la puerta, ahí fuera...
    
  • Ebm                                 B                Ab - B
    me asfixio dios, pienso en mi cara, se esta quemando ahora mi cara dios
    Ebm                            B                Ab - B
    una explosion y los colchones, se prenden fuego y nos quemamos vivos.
    Ebm                             B                Ab - B
    quiero salir, quiero escapar, las puertas siguen encerrojadas
    Ebm                         B                Ab - B
    el pabellon, en un segundo, se nublo todo y ya no vemos nada mas
    
    
                           (bis)
    Gb                              B                  Ab - B
    puedo trepar hasta un ventanal, buscando el aire y me balean fiero
    Gb                             B                  Ab - B
    viejita, amor, hijas y amigas, buscan noticias en la puerta ahi fuera
    
    
    tiempo despues, escucho aun, el ruido loco de los paloteros
    buscan asi, baldosas flojas, donde escondemos tesoro y miserias
    
    
  • Intro:D#-A#-G#-A#-(X2)F#-A#-F#-A#
    S:ARRASTRE:DEL A# a G# y del G# al A#
    D#
    Me asfixio! dios¡ Pienso en mi cara...
    A#               G#_s_A#
    Se esta quemando ahora mi cara dios!
    D#
    Una explosion y los colchones.
    A#              G#_s_A#
    Se prenden fuego y nos quemamos vivios...
    D#
    Quiero sali,quiero escapar,
    A#                G#_A#
    las puertas siguen encerrojadas.
    D#                        A#
    El pabellon en un segundo se nublo
    G#___A#
    todo y ya no vemos nada mas...
    F#
    Pruebo trepar hasta un ventanal
    
  • LA
    Me asfixio! Dios! Pienso en mi cara...
    MIm
    se está quemando, ahora, mi cara... Dios!
    LA
    Una explosión y los colchones
    MIm
    se prenden fuego y nos quemamos vivos...
    LA
    Quiero salir, quiero escapar,
    MIm
    las puertas siguen encerrojadas.
    LA
    El pabellón... en un segundo
    MIm
    se nubló todo y ya no vemos nada más...
    
    DO
    Pruebo trepar hasta un ventanal
    MIm
    
  •    D#5     C#5   Bb5    D#5     C#5   Bb5  D#5      C#5  D#5
    E|-------------------|-------------------|-------------------|
    B|--4-4-4-4----------|--4-4-4-4----------|-------------------|
    G|----------6-6-6-3--|----------6-6-6-3--|--8--------6----8--|  X2
    D|-------------------|-------------------|--8--------6----8--|
    A|-------------------|-------------------|--6--------4----6--|
    E|-------------------|-------------------|-------------------|
    
    
    E|-------------------|-------------------|--13h16h13-----------|-------------------|-------------------|-------------------|
    B|--16---14------14--|-16^-16^---16--14--|-----------16h14-----|-------------------|-------------------|-------------------|
    G|------------15-----|-------------------|-----------------15\-|--13h15h13--13--13-|-131313---13h15h13-|---13-13131313--13-|
    D|-------------------|-------------------|---------------------|----------15-------|-------------------|-15----------------|
    A|-------------------|-------------------|---------------------|-------------------|-------------------|-------------------|
    E|-------------------|-------------------|---------------------|-------------------|-------------------|-------------------|
    
    
    E|-------------------|-------------------|-------------------|-------------------|-------------------|-------------------|
    B|-------------------|--16^----16-14-----|--16^16^-16-14-----|-------------------|-------------------|-------------------|
    G|-13131313-13-------|---------------15~-|---------------15~-|-15151515-15151515-|-151515-15151515---|-15151515-151515---|
    
  • Intro:                           Bbm             G# Bbm
    D#5(riff)hasta LA primer barra    luego de la barra repetir x2
    E--------------------------------|--------------------
    B-4-4-4-4-2-2-2--4-4-4-4-2-2-2---|-11-----11----11-----
    G---------------3--------------3-|-13e15--13e15-13e15---
    
    Primer viola sobre F#
    E-----------------------13------------------|--
    B-16-14------14-16-16e18--16e18-16-14-16e18-|--
    G-------13-13-------------------------------|--
    
    Segunda viola sobre Bbm
    E-13h16p13---------------------------------------------
    B----------16p14------------------------------------------
    G----------------15p13-13h15p13----13-13-13-13-15p13-x------
    D-------------------------------15------------------------
    
    E------------------------------
    B------------13-13-13-13-13-13--------
    G-15p13---13-13-13-13-13-13-13--------
    
  • +
    ¡Colabora con nosotros!
    Envíanos tu versión de esta canción

Letra de Pabellón Séptimo
Me asfixio! Dios!
Pienso en mi cara.. se está quemando, ahora, mi cara... Dios!
Una explosión y los colchones se prenden fuego y nos quemamos vivos...
Quiero salir, quiero escapar, las puertas siguen encerrojadas
El pabellón... en un segundo se nubló todo y ya no vemos nada más...
Estribillo.
Pruebo trepar hasta un ventanal buscando el aire y me balean fiero
Viejita, amor, hijas y amigas, buscan noticias en la puerta, ahí fuera...
Tiempo después, escucho aún el ruido loco de los paloteros
Buscan así baldosas flojas donde escondemos tesoro y miserias
Pobrecito!... pobre 'el Cebolla', no pudo más
Se degolló por miedo
Nadie es capaz (no pueden borrar mis recuerdos!)
Nadie es capaz de matarte en mi alma
Y así te dan! Así te quiebran!
Así te dan por culo allí... sin más
Por esa vez la Vieja Cosechera vino
por mí y no quiso besar mi vida
Estoy herido, estoy quemado
Voy en camilla por el Salaberry
Voy a tratar de hacer conducta aquí
Para rajar antes que mis pulmones
Si va a pasar algo conmigo
Quiero que sea en libertad... allá afuera!
Y nada más! irme y nada más!
No quiero ver más gruesa de llavero
Ni mirar la pared si el pasarela grita
Para tapar quejidos y lamentos
Ya nunca más!
ya nunca mas!
ya nunca mas...
Y nunca ya voy a olvidarte, Pablo... nunca!
Les pido por favor que escuchen esta historia hecha canción
porque creo que es espectacular todo lo que dice. Si sacan el




[Pabellón Séptimo chords][Pabellón Séptimo cifra]
© LaCuerda.net · aviso legal · privacidad · es · en · pt · contacto