Acordes de Guitarra » F »Los Fundamentalistas del Aire Acondicionado » Flight 956 (Tab)

Flight 956
Los Fundamentalistas del Aire Acondicionado

Letras, Acordes y Tabs para Guitarra, Bajo y Ukulele

  • C  F
    
    C F        C        F
    Parece que en el final
       C       F        C        F
    no me saldré con la mía mi amor
    C    F        C        F     C   F  C F
    debería chequear mi contestador
    C      F    C    F        C    F   C F  C F
    Flight Nine Five Six, voy a extrañar
    C  F   C  F            C     F
    tu belleza es como un resplandor.
    
    Estoy tan cansado que
    no tengo fuerzas para discutir
    Es tan triste esta vez que no puedo hablar
    Flight Nine Five Six, el tiempo dirá
    yo sé que vos vas a regresar
    
    F           Em           Am
    
  • C             F
    Parece que en el final
       C                F
    no me saldre con la mia mi amor
    C           F               C        F
    deberia chequear mi contestador
    
    C           F             C         F
    Flight Nine Five Six, voy a extrañar
          F                C            F
    tu belleza es como un resplandor.
    
    Estoy tan cansado que                         [repite]
    no tengo fuerzas para discutir
    Es tan triste esta vez que no puedo hablar
    
    Flight Nine Five Six, el tiempo dira
    yo se que vos vas a regresar
    
    F            Em          Am
    
  • e|------------------------|---------------------|--|
    b|--6-5---8-8^9^8--6-5-6--|--6-5---8-8^9^8--6---|--|
    g|------5-----------------|------5------------5-|--|
    d|------------------------|---------------------|x2|
    a|------------------------|---------------------|--|
    E|------------------------|---------------------|--|
    Otra guitarra:
    e|----------------------------|----------------------------|--|
    b|----------------------------|----------------------------|--|
    g|-----------0----------------|------------0---------------|--|
    d|---0--2--3---3--2-0----0^2--|---0--2--3---3--2--0---2----|x1|
    a|-3------------------3-------|-3------------------------3-|--|
    E|----------------------------|----------------------------|--|
    
    F* =  E A D G B E
          x 3 3 2 1 0
    
    
    C                   F*
    Parece que en el final
    
  • Guitarra 1:   C5 - D5
    
    
    Guitarra 2:
    
    E -------3---3-5-3-5-3---------
    B -5-3-5----------------5------
    G -----------------------------
    D -----------------------------
    A -----------------------------
    E -----------------------------
    
    
    Guitarra 3:
    
    e ------------------------------------------------
    B ------------------------------------------------
    G ------------------------------------------------
    D ------------------------------------------------
    A -3-5-7-8/10-8/7/5-3-5-7-----3-5-7-8/10-8/7/5-7-3
    
  • +
    ¡Colabora con nosotros!
    Envíanos tu versión de esta canción

Letra de Flight 956
Parece que en el final
no me saldre con la mia mi amor
deberia chequear mi contestador
Flight Nine Five Six, voy a extrañar
tu belleza es como un resplandor.
Estoy tan cansado que [repite]
no tengo fuerzas para discutir
Es tan triste esta vez que no puedo hablar
Flight Nine Five Six, el tiempo dira
yo se que vos vas a regresar
Disculpa mis actos de hampon
siempre hay quilombito en un cielo de dos
Y nunca hay terreno sagrado, amor
y es dificil no ser injusto con vos,
Cuando escapas en tu ...
Flight Nine Five Six intento reir [repite]
Dios no esta en los detalles de hoy
sera un melodrama vulgar?, pasados dos meses nos consolaran?
lloraras con un ojo y con el otro te reiras
Flight Nine Five Six, voy a extrañar
tu belleza es como un resplandor.




[Flight 956 chords][Flight 956 cifra]
© LaCuerda.net · aviso legal · privacidad · es · en · pt · contacto
DINAMICO