Acordes de Guitarra » F »Los fuckin sombreros » Sha-la-la (Tab)

Sha-la-la
Los fuckin sombreros

Letras, Acordes y Tabs para Guitarra, Bajo y Ukulele

  • |--1-2-x-x-2-x-x-2-1-2-x-x-2-x-x-2-1-2-x-x-2-x-x-2-1
    |--2-3-x-x-3-x-x-3-2-3-x-x-3-x-x-3-2-3-x-x-3-x-x-3-2
    |--1-2-x-x-2-x-x-2-1-2-x-x-2-x-x-2-1-2-x-x-2-x-x-2-1
    |---------------------------------------------------
    |---------------------------------------------------
    |---------------------------------------------------
    
    
    
    Verso 1:
    
    6 de la mañana presentame a tu hermana
    la llevo a la esquina y le doy una propina
    
    Bridge:
    
    G5            A5  G5                A5
    Y apagen la tele, y prendan otro mas
    
    G5              A5
    
  • |--1-2-x-x-2-x-x-2-1-2-x-x-2-x-x-2-1-2-x-x-2-x-x-2-1
    |--2-3-x-x-3-x-x-3-2-3-x-x-3-x-x-3-2-3-x-x-3-x-x-3-2
    |--1-2-x-x-2-x-x-2-1-2-x-x-2-x-x-2-1-2-x-x-2-x-x-2-1
    |---------------------------------------------------
    |---------------------------------------------------
    |---------------------------------------------------
    
    Riff 2
    |--1-2-x-x-2-x-x-2-1-2-x-x-2-x-x-2-1-2-x-x-2-x-x-2-1
    |--2-3-x-x-3-x-x-3-2-3-x-x-3-x-x-3-2-3-x-x-3-x-x-3-2
    |--3-4-x-x-4-x-x-4-3-4-x-x-4-x-x-4-3-4-x-x-4-x-x-4-3
    |---------------------------------------------------
    |---------------------------------------------------
    |---------------------------------------------------
    
    ................
    
    Intro: Riff 1
    
    Verso 1:
    
  • +
    ¡Colabora con nosotros!
    Envíanos tu versión de esta canción

Letra de Sha-la-la
Verso 1:
6 de la mañana presentame a tu hermana
la llevo a la esquina y le doy una propina
Bridge:
Y apagen la tele, y prendan otro mas
no hay nada mejor que cantar
Repetir Intro:
Verso 2:
Joel en la cocina, prepara medicina (aha ha aha ha)
Lola 1000 pastillas la sacan en camilla (aha ha aha ha)
Bridge: (Sonido Distorcionado)
Y apagen la tele, y prendan otro mas
no hay nada mejor que cantar
Laa, Sha-la-la-la, sha-la-la-la, sha-la-la-la, ooh ooh laa
Sha-la-la-la, sha-la-la-la, sha-la-la-la, ooh ooh laa
(Aca viene el Solo que no lo he sacado)
(En este verso, se toca lo mismo que en los otros versos y en la intro pero
haciendo Palm Mute a los acordes)
Verso 3: (Sonido: Palm Mute)
Todos los momentos, aquellos buenos tiempos
se van a la deriva y no hay nada que lo impida
(Aca ya se toca normal)
Verso 4:
6 de la mañana, camino a la fama (aha ha aha ha)
pero la policia me dio su porqueria (aha ha aha ha)
Bridge: (Sonido Distorcionado)
Y apagen la tele, y prendan otro mas
no hay nada mejor que cantar
Laa, Sha-la-la-la, sha-la-la-la, sha-la-la-la, ooh ooh laa
Sha-la-la-la, sha-la-la-la, sha-la-la-la, ooh ooh laa
(Aca viene el 2do solo, que lo voi a poner pero no estoy seguro
si esta completamente bien)
Laa, Sha-la-la-la, sha-la-la-la, sha-la-la-la, ooh ooh laa
Sha-la-la-la, sha-la-la-la, sha-la-la-la, ooh ooh laa
Laa, Sha-la-la-la, sha-la-la-la, sha-la-la-la, ooh ooh laa
Sha-la-la-la, sha-la-la-la, sha-la-la-la, ooh ooh laa




[Sha-la-la chords][Sha-la-la cifra]
© LaCuerda.net · aviso legal · privacidad · es · en · pt · contacto
DINAMICO