Acordes de Guitarra » F »Francisco Barrios » Mi nueva canción (Tab)

Mi nueva canción
Francisco Barrios

Letras, Notas, Punteos, Tablaturas y Acordes de Guitarra (Tabs & Chords)

  • Tablatura
    ---------------
    
    INTRO:
          C        C/B       Am       Am/G        F1      G1  
    6|---------|---------|---------|-3-------|-1-------|--3--|
    5|-3-------|-2-------|-0-------|---------|---------|-----|
    4|---2-----|---0-----|---2-----|---2-----|---3-----|--0--|
    3|-----0---|-----0---|-----2---|-----2---|-----2---|--0--|
    2|-------1-|-------1-|-------1-|-------1-|-------1-|-----|
    1|---------|---------|---------|---------|---------|-----|
    
          C        C/B       Am       Am/G        F1      G2  
    6|---------|---------|---------|-3-------|-1-------|--3--|
    5|-3-------|-2-------|-0-------|---------|---------|-----|
    4|---2-----|---0-----|---2-----|---2-----|---3-----|--0--|
    3|-----0---|-----0---|-----2---|-----2---|-----2---|--0--|
    2|-------1-|-------1-|-------1-|-------1-|-------1-|--0--|
    1|---------|---------|---------|---------|---------|-----|
    
        C        C/B       Am       
    
  • +
    ¡Colabora con nosotros!
    Envíanos tu versión de esta canción

Letra de Mi nueva canción
Esta es una vieja cancion
que alguna vez fue una nueva canción,
cancion que me hizo saber
que lo que estoy cantando ya es un modismo
-que no es lo mismo-
pero es lo mesmo
y ya es una vieja canción...
ACORDES:
P.D. pa´cualquier reclamacion, duda, pregunta,
respuesta, escriban a rupestrico@hotmail.com
ya que el reboraines esta de baja...



© LaCuerda.net · Aviso Legal · Privacidad