Acordes de Guitarra » F »Fito Paez » Dos en la ciudad (Tab)

Dos en la ciudad
Fito Paez

  • Letra y Acordes
    Intro: [Dmaj7 Cmaj9] x 3
           [Dmaj7 G/A]
    
                         Gmaj7
    Nos encontramos en la calle
       F#7(#5)       Bm7 Bm7/A
    yo diría, casualidad,
                        Gmaj7
    aún conservaba esa mirada,
       A7sus4       A7         Bm7  G/A
    ese garbo, ese swing, ese charm.
    
    Venía súper colocada,
    su sonrisa, sí, era algo especial,
    cuando me dio la cachetada
            A7sus4    A7   Dmaj7   [Gmaj7 F9]
    puso las cosas en su lugar.
    
    
    Em7       A7sus4  Dmaj7
    
  • Tab p/Bajo
    Ojo, el símbolo | quiere decir que la nota se desliza hacia
    abajo (por alguna razón no me reconoce el slash ladeado hacia
    la izquierda).
    
    
    [Intro]
    G|---------------------------------------------------------
    D|---------------------5h7-5-7-----------------------------
    A|--17|5--5-----5-3--3---------5--5-----5-3-3-----------3--
    E|----------5-7---------------------5-7-------3-3-0-0-5----
                                               Nos encontramos en la
    -------------------------------------------------|
    ------------------5h7-5-7------------5h7-----7|--|
    --5--5-----5-3--3---------5--5-----5-------5-----|
    -------5-7---------------------5-7-------5-------|
    
        calle...
    G|-----------------------------------------------------
    D|-----------------------------------------------------
    A|--------------------2--2-2--2------------------------
    E|--3--3-3--3-2--2-2------------5--5-5--5-3--3-3--3-5--
    
    -------------------------------------------------------------
    -----------------------------------------
  • +
    ¡Colabora con nosotros!
    Envíanos tu versión de esta canción

Letra de Dos en la ciudad
Nos encontramos en la calle
yo diría, casualidad,
aún conservaba esa mirada,
ese garbo, ese swing, ese charm.
Venía súper colocada,
su sonrisa, sí, era algo especial,
cuando me dio la cachetada
puso las cosas en su lugar.
Luego me abrió su boca
como la libertad,
tomamos unas copas
y en el bar se echó a llorar.
El tie-mpo pasó, fui-mos ella y yo
dos en la ciu-dad, en la ciudad.
Me preguntó cómo había sido,
cómo fue que elegí partir,
si había tenido algunos hijos
y si alguna vez fui tan feliz.
Le pregunté si estaba sola,
ella si que sabía fingir,
que ingenuidad, no era una boba,
era el mismo monte Sinaí.
Pa-só, pa-só, pasó nuestro cuarto de hora,
Pa-só, pa-só, pero aún sabíamos reír.
Se nos pa-só la noche entre el whisky y la coca,
se nos pa-só pero aún sabíamos reír.
Todo el fin de semana
no nos dejamos ir,
cuando me levanté ese lunes,
ella ya no estaba allí.
El tie-mpo pasó, fui-mos ella y yo
dos en la ciu-dad.
Pa-só, pa-só, pasó nuestro cuarto de hora,
Pa-só, pa-só, pero aún sabíamos reír.
Se nos pa-só la noche entre el whisky y la coca,
se nos pa-só pero aún sabíamos reír.
Fin: [Dmaj7 Cmaj9] x 24



© LaCuerda.net · aviso legal · privacidad · contacto