Acordes de Guitarra » F »Fito Paez » Circo Beat (Tab)

Circo Beat
Fito Paez

  • Letra y Acordes
         Bm7                              F#m7
    Psicodélica star de la mística de los pobres
          Em7           F#7               Bm7
    de misterio, de amor, de dinero y soledad.
          Bm7                          F#m7
    yo no vine hasta acá, a ayudarte buscando cobre
         Em7                 F#7       Bm7
    mi pasado es real y el futuro libertad.
    
    
     G     D          Am7
    Circo Beat, Circo Beat
    Em7             G                      D  Dsus4-D
     todo el mundo juega aquí en el circo beat.
     G     D          Am7
    Circo Beat, Circo Beat
    Em7         G                  D  Dsus4-D
     rayos y culebras en el circo beat.
    
    
    
  • Letra y Acordes
    A)
    sim7/4...
    Psicodélica star de la mística de los pobres...
        SIm7/4
    de misterio de amor de dinero y soledad
        SIm7/4                                FA#m
    Yo no vine hasta acá a ayudarte buscando cobre
        MIm7                FA#m        SIm7 (V-2 VI-4 V-0-1-2 IV-0)
    mi pasado es real y el futuro libertad
    
    B)
        RE-RE4-RE           DO6/+7/SOL
    Circo beat,           circo beat
    MIm7/9         SOLm7/(6)                RE-RE4-RE
    todo el mundo juega aqui en el circo beat
    RE-RE4-RE        DO6/+7/SOL
    circo beat, circo beat
    MIm7/9     SOLm7/(6)           RE
    rayos y culebras en el circo beat
    
    
  • Tablatura
    e-----------------------------------------------
    B-----------------------------------------------
    G-7h9--11v-11v----11-9-11-9--7--9/11-9--9p7---7-
    D-------------------------------------------9---
    A-----------------------------------------------
    E-----------------------------------------------
    
    
    G---9-9-7-9-7---9-7---9p7--9p7--------7-
    D------------------------------9-7-9----
    
    
    
    e-19/---12-10---12-10---------------------------
    B----------------------12-10-----10-------------
    G-----------------------------11------11-9-9-11-
    
    
    
    B--10-----------------------------------------
    
  • Tab p/Bajo
    esta tablatura esta exelente y perfecta
    si no te sale al principio sigue practicando k los bajos
    de guillemro vadala no san nada pero nada faciles,
    la tab esta perfecta.
    
    
           G|-----------------|--222-3-4-----|----------------|---------------|
           D|-----------------|--------------|----4----2--4---|---222-3-4-----|
     verso A|--2---2---0--2---|--------------|------4---------|---------------|
           E|--------2--------|--------------|--2-------------|---------------|
    
    
           G|-----------------|-----------|---------------|-222-3-4-|-7H9-7---|
           D|--------2---0--2-|-----------|---------------|---------|-------9-|
           A|----------2------|-----------|---2--2---0--2-|---------|---------|
           E|-2-1-0-----------|--000-1-2--|-2------2------|---------|---------|
    
    
           G|------|------------|-----------|-------------|------------|
      coro D|------|------------|-----------|-------------|------------|
           A|------|--55555555--|-55555555--|-0--0-----0--|-0--0-------|
           E|
  • Tab p/Bajo
    Transcripcion por Armando Núñez R.
    
    Tablatura para bajo
    
    h: Hammer on
    p: Pull off
    /: Slay Up
    \: Slay Down
    x: Muted Note
    S_: Semicorcheas
    *: Segmentos de la letra como guia
    
    
    
    'El bajo entra con la bateria en el 5to compas'
    
    [Intro - Estrofa 1]
    
    
        Em                [S___]
    G|-------------------------|-----------------------|
    D|-------2-----0h2---------|-----------------------|
    A|----------0--------------|----------------x-x-x--|
    E|--0-----------------0-0--|-0--1--2---------------|
    *Misterio de amor...
        Bm                [S___]            [S________]
    G|-------4-----2h4----2-2--|-2--3--4----2h4-2------|
    D|----------0--------------|-------------------4---|
    A|--2----------------------|---------------------0-|
    E|-------------------------|-----------------------|
    
        Bm                [S___]
    G|-------4-----2h4----2-2--|-2--3--4---------------|
    D|----------0--------------|-----------------------|
    A|--2----------------------|------------------2--0-|
    E|
  • +
    ¡Colabora con nosotros!
    Envíanos tu versión de esta canción
  • Tutorial
    HD
    Circo beat - Fito Páez: SOLO GUITARRA TAB #19
    0:44
  • Tutorial
    HD
    Explicado - Como tocar "Circo Beat" de Fito Paez en el bajo tutorial#80
    13:09

Letra de Circo Beat
sim7/4...
Psicodélica star de la mística de los pobres...
de misterio de amor de dinero y soledad
Yo no vine hasta acá a ayudarte buscando cobre
mi pasado es real y el futuro libertad
Circo beat, circo beat
todo el mundo juega aqui en el circo beat
circo beat, circo beat
rayos y culebras en el circo beat
Casi todos tendrán un instante su touch de Gloria
Llegaremos en Jeep llegaremos a la ciudad.
no me gusta cantar yo me muero con jeno Rolens
y los monos están devastando este lugar
Circo beat, circo beat
cuando yo era pibe era de un circo beat
circo beat, circo beat
no pasaba nada pero circo beat, circo beat!
intermezzo: estrofa a) con guitarra solista encima
Circo beat, circo beat
todo el mundo juega aquí en el circo beat
circo beat, circo beat
rayos y culebras en el circo beat, circo beat.
psicodélica star de la mística de los pobres...
Y los monos están devastando este lugar
llegaremos en jeep Llegaremos a la ciudad
circo beat, circo beat!...
*: en el final, sigue repitiendo Circo Beat!, con una armonía
q va mas o menos entre sim7 y la, pero aqui va una especie de
sintetización para hacerlo en guitarra:
espero q sirva
tuanis!!



© LaCuerda.net · aviso legal · privacidad · contacto