Tablatura para Guitarra de Fito & Fitipaldis: Cualquier cancion o solo...
Conexión · Inscripción
Letras y Acordes
Pantalla Completa
Imprimir
Versión Texto
Añadir Favorito
Otras Versiones

Mostrar Diagramas
Desfile Automático
Manipular Acordes
Formato del Texto


Cualquier cancion o solo...(TAB)

Fito & Fitipaldis

calidad:
f_fi0241
AUTOR: Fito & Fitipaldis  corregir
ALBUM: Lo mas lejos a tu lado (2003)
Enviado por Diego
Bueno gente, aquí tenéis el solo que hacen las guitarras al final de 
'Un buen castigo'.Espero que os guste.

e|-2-3-2-0---2-----------------------2-3-2-0-\5-2-0---2-7-5-2-0-------
B|---------3---0-2-3---0-3-2-0---0------------------3-----------3-0-0-
G|-------------------0---------2--------------------------------------
D|--------------------------------------------------------------------
A|--------------------------------------------------------------------
E|--------------------------------------------------------------------

e|-2-3-2-0---2-----------------------2-3-2-0-\5-2-0---2-7-5-2-0-----7-
B|---------3---0-2-3---0-3-2-0---0------------------3-----------3-0---
G|-------------------0---------2--------------------------------------
D|--------------------------------------------------------------------
A|--------------------------------------------------------------------
E|--------------------------------------------------------------------

Cualquier sugerencia o duda contactadme en diegorego@hotmail.com
Este fichero es trabajo propio de su transcriptor y representa su interpretación personal de la canción. El material contenido en esta página es
para exclusivo uso privado, por lo que se prohibe su reproducción o retransmisión, así como su uso para fines comerciales.

© LaCuerda.net · Aviso Legal · Privacidad