Tablatura para Bajo de Fito & Fitipaldis: Corazón oxidado
Conexión · Inscripción
Letras y Acordes
Pantalla Completa
Imprimir
Versión Texto
Añadir Favorito
Otras Versiones

Mostrar Diagramas
Desfile Automático
Formato del Texto


Corazón oxidado(BAJ)

Fito & Fitipaldis

calidad:
f_fi0162
AUTOR: Fito
ALBUM: desconocido
Enviado por Javier
Corazón oxidado
Intro:

------------------------------------------------------------------
---------------------------2--2-2-0-2-4---------------------------
-2-2-0-0--------0--2-2-0-0----------------------------------------
---------0--2-3---------------------------------------------------



Todo se derrumba y es tan fácil, todos mis castillos son de arena 
-------------------------------------------------------------------
---------------------------------------2--2-2-0--4-----------------
--2---0----------0----------------2--0-----------------------------
----------0--2-3---------------------------------------------------


Todo lo que sueño es tan frágil, todo lo que bebo es tu ausencia
-------------------------------------------------------------------
-----------------------------------------2-------------------------
--2-2--0---------0-----------------2--0----------------------------
----------0--2-3---------------------------------------------------


Y mi pobre corazón de hierro, se me fue oxidando con las penas

------------------------------------------------------------------
----------------2-4-2----------------------2-4-5-4-2--------------
----------2-4-5-------5-4------------2-4-5------------------------
----3--2-----------------------3--2-------------------------------


Y es que tengo sueño y no me duermo, este fuego que ya no calienta.

------------------------------------------------------------------
-----------4------------------------------------------------------
---5-----2---5-0----------------------2-----2---------------------
------------------------------------3---5-2-----------------------



Todo lo que canto es tan estéril, todas las canciones son la misma
-------------------------------------------------------------------
---------------------------------------2--2-2-0--4-----------------
--2---0----------0----------------2--0-----------------------------
----------0--2-3---------------------------------------------------

muy pocas personas, demasiada gente, diferente sangre de una misma herida.
-------------------------------------------------------------------
-----------------------------------------2-------------------------
--2-2--0---------0-----------------2--0----------------------------
----------0--2-3----------------------------0-2-3------------------


Y mi pobre corazón de hierro, se me fue oxidando con las penas
------------------------------------------------------------------
----------------2-4-2----------------------2-4-5-4-2--------------
----------2-4-5-------5-4------------2-4-5------------------------
----3--2-----------------------3--2-------------------------------

Y es que tengo sueño y no me duermo, este fuego que ya no calienta.

------------------------------------------------------------------
-----------4------------------------------------------------------
---5-5----2---5-0----------------------2---22-2-0-2----------------
------------------------------------3-----------------------------


 Mientras el solo de saxo...

-------------------------------------------------------------------
---------------------------------------2--2-2-0--4-----------------
--2---0----------0----------------2--0-----------------------------
----------0--2-3---------------------------------------------------

-------------------------------------------------------------------
---------------------------------------2222222---------------------
--2---0----------0----------------2--0-----------------------------
----------0--2-3---------------------------------------------------

El último ritmo.....

-------------------------------------------------------------------
-------------------------------------------------------------------
---------------------55555555--------------------------------------
---55555555-33333333-----------------------------------------------

y así hasta el final....


Bueno son las tres y cuarto de la mañana, 
esta es la segunda transcripción que hago, y la primera de bajo 
que es de mi hermano, si teneis alguna sugerencia o quereis contactar 
conmigo pa lo que sea mi correo es kedao2001@hotmail.com,,,,,compraos
el cd que se lo a currao muxo y además con concierto en dvd, hay que 
 apoyar a la gente que hace buena música y menos triunfitos....y que viva
fito y tod@s l@s fitipaldis....... un saludo!!
Este fichero es trabajo propio de su transcriptor y representa su interpretación personal de la canción. El material contenido en esta página es
para exclusivo uso privado, por lo que se prohibe su reproducción o retransmisión, así como su uso para fines comerciales.

© LaCuerda.net · Aviso Legal · Privacidad