Acordes de Guitarra » F »los Fabulosos Cadillacs » Soledad (Tab)

Soledad
los Fabulosos Cadillacs

Letras, Acordes y Tabs para Guitarra, Bajo y Ukulele

  • Intro: G - C - D
      G              C
    Soledad vas a marcharte
               D              C
    en un día frío de Buenos Aires
              G                C
    te hice llorar, cuanto lo siento
          D                       C
    perdoname amor no quise lastimarte
                G
    no te das cuenta
                             C
    que vos sos lo que mas quiero
                D
    y eso me hace sentir
                     C
    un chico afortunado
                   G
    no se por que esta noche
                    C
    
  • G|----------------------------|
    D|----------------------------|
    A|-------333-—555--333--------| x2   Intro
    E|--333-----------------------|
    
    ((en esta estrofa va el mismo ritmo del intro))
    G|----------------------------|
    D|----------------------------|
    A|-------333-—555--333--------| x4
    E|--333-----------------------|
    Soledad vas a marcharte
    en un día frío de Buenos Aires.........
    
    ......ahora me muero de ganas
    de abrazarte.....
    seg 0:44 en cuanto entran las trompetas
    G|-------|-----------------------------------|
    D|-------|-----------------------------------|
    A|----3--|--5555----5555----5555-----555555-5|
    E|--3----|------3333----3333----3333---------|
    Soledad, Soledad, Soledad
              X3
    G|----------------------|-------|
    D|----------------------|-------|
    A|-5-55-----33—---------|-------|
    E|-------1-1--3-33-3-33-|--7s3--|
    
    G|----------------------------|
    D|----------------------------|
    A|-------333-—555--333--------| x2
    E|--333-----------------------|
    
    Te lo ruego olvidemos esta
  • +
    ¡Colabora con nosotros!
    Envíanos tu versión de esta canción

Letra de Soledad
Soledad vas a marcharte
en un día frío de Buenos Aires
te hice llorar, cuanto lo siento
perdoname amor no quise lastimarte
no te das cuenta
que vos sos lo que mas quiero
y eso me hace sentir
un chico afortunado
no se por que esta noche
fui con vos violento
y ahora me muero de ganas
de abrazarte.
Trompetas:D - C X3 Luego se rasguea D
Soledaaaaaaaaaaaaaaaaad, Al final del coro hace un bajeo asi:
Soledaaaaaaaaaaaaaaaaad, Y cae en D rasgueandolo.
Te lo ruego olvidemos esta noche
que tus ojos
no se cubran mas de lágrimas
te hice mal cuanto lo siento
perdoname amor no quise lastimarte.
te hice mal cuanto lo siento
perdoname amor no quise lastimarte.
Trompetas:D - C X3 Luego se rasguea D
Soledaaaaaaaaaaaaaaaaad, X 3.
Termina rasgueando D y cae finalmente en E11.




[Soledad chords][Soledad cifra]
© LaCuerda.net · aviso legal · privacidad · es · en · pt · contacto