Tablatura para Bajo de Extremoduro: BriBriBliBli
Conexión · Inscripción
Letras y Acordes
Pantalla Completa
Imprimir
Versión Texto
Añadir Favorito
Otras Versiones

Mostrar Diagramas
Desfile Automático
Formato del Texto


BriBriBliBli(BAJ)

Extremoduro

calidad:
extr0033
AUTOR: Extremoduro  corregir
ALBUM: desconocido
Enviado por ALEJANDRO
                            Bribriblibli
NOTA:

Espero y te ayude en algo esta tab.

Si necesitas una tab en especial, escríbeme o visita...

myspace.com/alejandrolauyola

                             W                   Q.     E  Q.     E
G||-------|-------|-------|-------------------|----------------------|
D||-------|-------|-------|-------------------|----------------------|
A||-------|-------|-------|-------------------|--3------3--2---------|
E||-------|-------|-------|-------------------|-------------------0--|


  Q.     E  Q.     E     Q.     E  Q.     E     W
----------------------|----------------------|-------------------|
----------------------|----------------------|-------------------|
----------------------|--3------3--2---------|-------------------|
--L------0--0---------|-------------------0--|--L----------------|


  E  E  E  E  E  E  E  E     E  E  E  E  E  E  E  E
--------------------------|--------------------------|
--------------------------|--------------------------|
--3--3--3--3--2--2--2-----|--------------------------|
-----------------------0--|--0--0--0--0--0--0--0--0--|


  E  E  E  E  E  E  E  E     E  E  E  E  E  E  E  E
--------------------------|--------------------------|
--------------------------|--------------------------|
--3--3--3--3--2--2--2-----|--------------------------|
-----------------------0--|--0--0--0--0--0--0--0--0--|


  E  E  E  E  E  E  E  E     E  E  E  E  E  E  E  E
--------------------------|--------------------------|
--------------------------|--------------------------|
--3--3--3--3--2--2--2-----|--------------------------|
-----------------------0--|--0--0--0--0--0--0--0--0--|


  E  E  E  E  E  E  E  E     W                   Q.     E  Q.     E
--------------------------|-------------------|----------------------|
--------------------------|-------------------|----------------------|
--3--3--3--3--2--2--2-----|-------------------|------------2---------|
-----------------------0--|--L----------------|--3------3---------0--|


  Q.     E  Q.     E     Q.     E  Q.     E     W
----------------------|----------------------|-------------------|
----------------------|----------------------|-------------------|
----------------------|------------2---------|-------------------|
--L------0--0---------|--3------3---------0--|--L----------------|


  Q.     E  Q.     E     Q.     E  Q.     E     Q.     E  Q.     E
----------------------|----------------------|----------------------|
----------------------|----------------------|----------------------|
--3------3--2---------|----------------------|--3------3--2---------|
-------------------0--|--L------0--0---------|-------------------0--|


  W                   E  Q    H        E     E  Q    H        E
-------------------|----------------------|----------------------|
-------------------|----------------------|----------------------|
-------------------|--5-------5-----------|--3-------3-----------|
--L----------------|----------------------|----------------------|


  E  Q    H        E     E  Q    H        E
----------------------|----------------------|
----------------------|----------------------|
--2-------2-----------|--0-------0-----------|
----------------------|----------------------|


  E  E  E  E  E  E  E  E     E  E  E  E  E  E  E  E
--------------------------|--------------------------|
--------------------------|--------------------------|
--5--5--5--5--5--5--5--5--|--3--3--3--3--3--3--3--3--|
--------------------------|--------------------------|


  E  E  E  E  E  E  E  E     E  E  E  E  E  E  E  E
--------------------------|--------------------------|
--------------------------|--------------------------|
--2--2--2--2--2--2--2--2--|--------------------------|
--------------------------|--5--5--5--5--5--5--5--5--|


  E  E  E  H        E     H        H
-----------------------|--------------------|-------------------|
-----------------------|--------------------|-------------------|
-----------------------|--------------------|-------------------|
--5--5--5--5--------L--|--L-----------------|-------------------|


  Q.     E  Q.     E     Q.     E  Q.     E     Q.     E  Q.     E
----------------------|----------------------|----------------------|
----------------------|----------------------|----------------------|
------------2---------|----------------------|------------2---------|
--3------3---------0--|--L------0--0---------|--3------3---------0--|


  W                   Q.     E  Q.     E     Q.     E  Q.     E
-------------------|----------------------|----------------------|
-------------------|----------------------|----------------------|
-------------------|--3------3--2---------|----------------------|
--L----------------|-------------------0--|--L------0--0---------|


  Q.     E  Q.     E     W                   E  Q    H        E
----------------------|-------------------|----------------------|
----------------------|-------------------|----------------------|
--3------3--2---------|-------------------|--5-------5-----------|
-------------------0--|--L----------------|----------------------|


  E  Q    H        E     E  Q    H        E     E  Q    H        E
----------------------|----------------------|----------------------|
----------------------|----------------------|----------------------|
--3-------3-----------|----------------------|----------------------|
----------------------|--3-------3-----------|--5-------5-----------|


  E  E  E  E  E  E  E  E     E  E  E  E  E  E  E  E
--------------------------|--------------------------|
--------------------------|--------------------------|
--5--5--5--5--5--5--5--5--|--3--3--3--3--3--3--3--3--|
--------------------------|--------------------------|


  E  E  E  E  E  E  E  E     E  E  E  E  E  E  E  E
--------------------------|--------------------------|
--------------------------|--------------------------|
--2--2--2--2--2--2--2--2--|--------------------------|
--------------------------|--5--5--5--5--5--5--5--5--|


  E  E  E  H        E     Q    H        Q
-----------------------|---------------------|
-----------------------|---------------------|
-----------------------|---------------------|
--5--5--5--5--------L--|--L------------------|


  E  E  E  E  E  E  E  E     E  E  E  E  E  E  E  E
--------------------------|--------------------------|
--------------------------|--------------------------|
--3--3--3--3--2--2--2-----|--------------------------|
-----------------------0--|--0--0--0--0--0--0--0--0--|


  E  E  E  E  E  E  E  E     E  E  E  E  E  E  E  E
--------------------------|--------------------------|
--------------------------|--------------------------|
--3--3--3--3--2--2--2-----|--------------------------|
-----------------------0--|--0--0--0--0--0--0--0--0--|


  E  E  E  E  E  E  E  E     E  E  E  E  E  E  E  E
--------------------------|--------------------------|
--------------------------|--------------------------|
--3--3--3--3--2--2--2-----|--------------------------|
-----------------------0--|--0--0--0--0--0--0--0--0--|


  E  E  E  E  E  E  E  E     W                   E  Q    H        E
--------------------------|-------------------|----------------------|
--------------------------|-------------------|----------------------|
--3--3--3--3--2--2--2-----|-------------------|--5-------5-----------|
-----------------------0--|--L----------------|----------------------|


  E  Q    H        E     E  Q    H        E     E  Q    H        E
----------------------|----------------------|----------------------|
----------------------|----------------------|----------------------|
--3-------3-----------|--2-------2-----------|----------------------|
----------------------|----------------------|--5-------5-----------|


  E  E  E  E  E  E  E  E     E  E  E  E  E  E  E  E
--------------------------|--------------------------|
--------------------------|--------------------------|
--5--5--5--5--5--5--5--5--|--3--3--3--3--3--3--3--3--|
--------------------------|--------------------------|


  E  E  E  E  E  E  E  E     E  E  E  E  E  E  E  E
--------------------------|--------------------------|
--------------------------|--------------------------|
--2--2--2--2--2--2--2--2--|--------------------------|
--------------------------|--5--5--5--5--5--5--5--5--|


  E  E  E  H        E     H        H
-----------------------|--------------------|
-----------------------|--------------------|
-----------------------|--------------------|
--5--5--5--5--------L--|--L-----------------|


  E  E  E  E  E  E  E  E     E  E  E  E  E  E  E  E
--------------------------|--------------------------|
--------------------------|--------------------------|
--------------------------|--5--5--x--x--x--x--x--x--|
--3--3--x--x--x--x--x--x--|--------------------------|


  E  E  E  E  E  E  E  E     E  E  E  E  E  E  E  E
--------------------------|--------------------------|
--------------------------|--------------------------|
--------------------------|--------------------------|
--5--5--x--x--x--x--x--x--|--8--8--8--8--8--8--8--8--|


  E  E  E  E  E  E  E  E     E  E  E  E  E  E  E  E
--------------------------|--------------------------|
--------------------------|--------------------------|
--------------------------|--5--5--5--5--5--5--5--5--|
--3--3--3--3--3--3--3--3--|--------------------------|


  E  E  E  E  E  E  E  E     E  E  E  E  E  E  E  E
--------------------------|--------------------------|
--------------------------|--------------------------|
--------------------------|--------------------------|
--5--5--5--5--5--5--5--5--|--8--8--8--8--8--8--8--8--|


  E  E  E  E  E  E  E  E     E  E  E  E  E  E  E  E
--------------------------|--------------------------|
--------------------------|--------------------------|
--------------------------|--5--5--x--x--x--x--x--x--|
--3--3--x--x--x--x--x--x--|--------------------------|


  E  E  E  E  E  E  E  E     E  E  E  E  E  E  E  E
--------------------------|--------------------------|
--------------------------|--------------------------|
--------------------------|--------------------------|
--5--5--x--x--x--x--x--x--|--8--8--8--8--8--8--8--8--|


  E  E  E  E  E  E  E  E     E  E  E  E  E  E  E  E
--------------------------|--------------------------|
--------------------------|--------------------------|
--------------------------|--5--5--5--5--5--5--5--5--|
--3--3--3--3--3--3--3--3--|--------------------------|


  E  E  E  E  E  E  E  E     E  E  E  E  E  E  E  E
--------------------------|--------------------------|
--------------------------|--------------------------|
--------------------------|--------------------------|
--5--5--5--5--5--5--5--5--|--8--8--8--8--8--8--8--8--|


  E  E  E  E  E  E  E  E     E  E  E  E  E  E  E  E
--------------------------|--------------------------|
--------------------------|--------------------------|
--------------------------|--5--5--5--5--5--5--5--5--|
--3--3--3--3--3--3--3--3--|--------------------------|


  E  E  E  E  E  E  E  E     E  E  E  E  E  E  E  E
--------------------------|--------------------------|
--------------------------|--------------------------|
--------------------------|--------------------------|
--5--5--5--5--5--5--5--5--|--8--8--8--8--8--8--8--8--|


  E  E  E  E  E  E  E  E     E  E  E  E  E  E  E  E
--------------------------|--------------------------|
--------------------------|--------------------------|
--------------------------|--5--5--5--5--5--5--5--5--|
--3--3--3--3--3--3--3--3--|--------------------------|


  E  E  E  E  E  E  E  E     E  E  E  E  E  E  E  E
--------------------------|--------------------------|
--------------------------|--------------------------|
--------------------------|--------------------------|
--5--5--5--5--5--5--5--5--|--8--8--8--8--8--8--8--8--|


  E  E  E  E  E  E  E  E     E  E  E  E  E  E  E  E
--------------------------|--------------------------|
--------------------------|--------------------------|
--------------------------|--5--5--5--5--5--5--5--5--|
--3--3--3--3--3--3--3--3--|--------------------------|


  E  E  E  E  E  E  E  E     E  E  E  E  E  E  E  E
--------------------------|--------------------------|
--------------------------|--------------------------|
--------------------------|--------------------------|
--5--5--5--5--5--5--5--5--|--8--8--8--8--8--8--8--8--|


  E  E  E  E  E  E  E  E     E  E  E  E  E  E  E  E
--------------------------|--------------------------|
--------------------------|--------------------------|
--------------------------|--5--5--5--5--5--5--5--5--|
--3--3--3--3--3--3--3--3--|--------------------------|


  E  E  E  E  E  E  E  E     E  E  E  E  E  E  E  E
--------------------------|--------------------------|
--------------------------|--------------------------|
--------------------------|--------------------------|
--5--5--5--5--5--5--5--5--|--8--8--8--8--8--8--8--8--|


  E  E  E  E  E  E  E  E     E  E  E  E  E  E  E  E
--------------------------|--------------------------|
--------------------------|--------------------------|
--------------------------|--5--5--5--5--5--5--5--5--|
--3--3--3--3--3--3--3--3--|--------------------------|


  E  E  E  E  E  E  E  E     E  E  E  E  E  E  E  E
--------------------------|--------------------------|
--------------------------|--------------------------|
--------------------------|--------------------------|
--5--5--5--5--5--5--5--5--|--8--8--8--8--8--8--8--8--|


  W
-------------------||
-------------------||
-------------------||
--3----------------||




Duration Legend
---------------
W - whole
H - half
Q - quarter
E - 8th
S - 16th
T - 32nd
X - 64th
. - note dotted
|-n-|  - n-tuplets


Tablature Legend
----------------
L - tied note
x - dead note
g - grace note
(n) - ghost note
> - accentuded note
NH - natural harmonic
AH - artificial harmonic
TH - tapped harmonic
SH - semi harmonic
PH - pitch harmonic
h - hammer on
p - pull off
b - bend
br - bendRelease
pb - preBend
pbr - preBendRelease
brb - bendReleaseBend
n/ - tremolo bar dip
n - tremolo bar dive
-/n - tremolo bar Release up
/n - tremolo bar inverted dip
/n - tremolo bar return
-n - tremolo bar Release down
S - shift slide
s - legato slide
/ -  slide into from below or out of upwards
 -  slide into from above or out of downwards
~ - vibrato
W - wide vibrato
tr - trill
TP - tremolo picking
T - tapping
S - slap
P - pop
< - fade in
^ - brush up
v - brush down

NOTA:

Espero y te ayude en algo esta tab.

Si necesitas una tab en especial, escríbeme o visita...

myspace.com/alejandrolauyola
Este fichero es trabajo propio de su transcriptor y representa su interpretación personal de la canción. El material contenido en esta página es
para exclusivo uso privado, por lo que se prohibe su reproducción o retransmisión, así como su uso para fines comerciales.

© LaCuerda.net · Aviso Legal · Privacidad