Acordes de Guitarra » E »Extrechinato y tu » Abrazado a la tristeza (Tab)

Abrazado a la tristeza
Extrechinato y tu

Letras, Acordes y Tabs para Guitarra, Bajo y Ukulele

  •     Am                             Am
    e|------------3-----2---------2h3------------3-----2---------2h3-----|
    B|------1-----------------0------------1-----------------0-----------|
    G|----2-----2-----2-----2------------2-----2-----2-----2-------------|
    D|-------------------------------------------------------------------|
    A|--0-----0-----0-----0------------0-----0-----0-----0---------------|
    E|-------------------------------------------------------------------|
    
        Em                             Em
    e|-------------------------------------------------------------------|
    B|------------0------------------------------0-----------------------|
    G|------0-----------3-----0------------0-----------3-----0-----------|
    D|----2-----2-----2-----2------------2-----2-----2-----2-------------|
    A|-------------------------------------------------------------------|
    E|--0-----0-----0-----0-------3h2--0-----0-----0-----0------2h3------|
    
    
        Cmaj7                          D
    e|-------------------------------------------------------------------|
    B|------------0------------------------------0-----------------------|
    
  •     Am                             Am
    e|------------3-----2---------2h3------------3-----2---------2h3-----|
    B|------1-----------------0------------1-----------------0-----------|
    G|----2-----2-----2-----2------------2-----2-----2-----2-------------|
    D|-------------------------------------------------------------------|
    A|--0-----0-----0-----0------------0-----0-----0-----0---------------|
    E|-------------------------------------------------------------------|
        He salido A LA calle           abrazado a la tristeza 
    
        Em                             Em
    e|-------------------------------------------------------------------|
    B|------------0------------------------------0-----------------------|
    G|------0-----------3-----0------------0-----------3-----0-----------|
    D|----2-----2-----2-----2------------2-----2-----2-----2-------------|
    A|-------------------------------------------------------------------|
    E|--0-----0-----0-----0-------3h2--0-----0-----0-----0------2h3------|
        Vi lo que no mira nadie        y me dio verguenza y pena
        
        Am                             Am
    e|------------3-----2---------2h3------------3-----2---------2h3-----|
    
  • +
    ¡Colabora con nosotros!
    Envíanos tu versión de esta canción

Letra de Abrazado a la tristeza
He salido a la calle abrazado a la tristeza
y no quiero mirar a nadie y me dio vergüenza y pena.
(Chinato) Am - Am - Em - Em - Am - Am - Em - Em
Soledad que te pegas a mi alma en la dulce soledad de este campo de otoño
no hay momentos de sosiego, rebeldía pura de amores sin amores
Ilusiones puras y puros conformismos intentando levantar el espíritu
nostálgico de querer estar contigo y nunca estarlo.
Los llantos desconsolados que estrangulan las gargantas.
Los ancianos encorvados parece que la tierra les llama.
(Chinato) Am - Am - Em - Em - Am - Am - Em - Em
Volverás de vez en cuando a estas tierras agrietadas y verás de nuevo
a quién te ama, borracho, borracho de amores y libertades
y también de vino por olvidarte, borracho, ... borracho.
Me da pena que se admire el valor en la batalla.
Menos mal que con los rifles no se matan las palabras.
(Chinato) C - D - Em - Em
Y si surgen saludos y palabras, tal vez, notes la dureza de mi estilo
queriendo decirte nada, y en mi soledad, solo herirme yo mismo.
La justicia está arrestada por orden de la avaricia.
El dinero que te salva es el mismo que asesina.
(Chinato) Am - Am - Em - Em - Am - Am - Em - Em
Y verás sin duda, el resurgir poderoso del guerrero sin miedo a leyes
ni a nostalgias y lo verás caer una y mil veces y levantarse de nuevo,
con la pura bandera de su raza,
Soledad de amores, triste y pura, soledad de amores y locura.
No me des más esperanza sé que todo son mentiras.
Sacos llenos de agujeros para guardar alegrías.
(Chinato) C - D - Em - Em
Y verás sin duda, el resurgir poderoso del guerrero sin miedo a leyes
ni a nostalgias y lo verás caer una y mil veces y levantarse de nuevo,
con la pura bandera de su raza.
Me da pena que se admire el valor en la batalla.
Menos mal que con los rifles no se matan las palabras.
(Chinato) C - D - Em - Em
Soledad de amores, triste y pura, soledad de amores y locura.

Video de Abrazado a la tristeza
[]




[Abrazado a la tristeza chords][Abrazado a la tristeza cifra]
© LaCuerda.net · aviso legal · privacidad · es · en · pt · contacto