Acordes de Guitarra » E »Extrechinato y tu » Juguete de amor (Tab)

Juguete de amor
Extrechinato y tu

Letras, Acordes y Tabs para Guitarra, Bajo y Ukulele

  •  P.M.-------------------------------------------------|
    
    E-----------------------------------------------------|
    B---------10-----------10-----------9-----------7-----|
    G------9------9-----9------9-----9-----9-----9-----9--|   x4
    D-----------------------------------------------------|
    A---0------------0------------0-----------0-----------|
    E-----------------------------------------------------|
    
    
    
    E-----------------------------------------------------|
    B---------10-----------10-----------9-----------7-----|
    G------9------9-----9------9-----9-----9-----9-----9--|   x3
    D-----------------------------------------------------|
    A---0------------0------------0-----------0-----------|
    E-----------------------------------------------------|
    
    
    
    
  • E||--------5-----------5-----|---------------------------||
    B||-----5-----5-----5-----5--|-----5--9--5-----5--7--5---||
    G||--------------------------|--------------------------*||
    D||--7-----------7-----------|--7-----------7-----------*||
    A||--------------------------|---------------------------||
    E||--------------------------|---------------------------||
    
    Cuando comienza la 5 vez se superpone lo mismo pero con la acustica y limpia, ni palm mute ni ostias.
    
    Acaban las dos guitarras así:
    
    |--------5-----------5-----|-------------------------|
    |-----5-----5-----5-----5--|-----5--9--5-----5--7----| El ultimo 7  de la cuerda 2 dura 
    |--------------------------|-------------------------| el doble de tiempo que el resto.
    |--7-----------7-----------|--7-----------7----------|
    |--------------------------|-------------------------|
    |--------------------------|-------------------------|
    
    Luego suena esto dos veces
    
    
  • +
    ¡Colabora con nosotros!
    Envíanos tu versión de esta canción

Letra de Juguete de amor
Cuando comienza la 5 vez se superpone lo mismo pero con la acustica y limpia, ni palm mute ni ostias.
Acaban las dos guitarras así:
Luego suena esto dos veces

Esto ultimo mejor poned la posicion del acorde, porque creo que suena alguna nota mas del acorde.
Punteo 1:


El final esta un pelin cambiao, pero esta en el tono, suena bien, y acaba igual...
De fondo suena una acustica con lo mismo que el principio de la cancion:
Y otra vez esto:

Despues...Punteo 2: (sin distorsion)



De fondo creo que suena esto, pero no estoy seguro: (Con palm mute y distorsion)
Luego otra vez el principio:
Y otra vez:

Despues suena el Punteo 2 teniendo como fondo el Riff 1
Y luego empieza el punteo guapo del final:
Punteo 3

A partir de la 3º suena el Punteo 2 de fondo.
Con la acustica me parece que tocan la siguiente progresion: Bm c#m D.
Y si no la tocan da igual porke keda bien.
Acaban con el principio:
Si teneis alguna duda me podeis encontrar en jontxutxu@hotmail.com.
O en el Irc-Hispano con el nick norg, norg-away, norg-ias o anker^.
Saludos, y que viva el rock!
Jon.

Video de Juguete de amor
[]




[Juguete de amor chords][Juguete de amor cifra]
© LaCuerda.net · aviso legal · privacidad · es · en · pt · contacto