Tablatura para Guitarra de Extremoduro: BriBriBliBli
Conexión · Inscripción
Letras y Acordes
Pantalla Completa
Imprimir
Versión Texto
Añadir Favorito
Otras Versiones

Mostrar Diagramas
Desfile Automático
Manipular Acordes
Formato del Texto


BriBriBliBli(TAB)

Extremoduro

calidad:
extr0032
AUTOR: Extremoduro  corregir
ALBUM: desconocido
Enviado por ALEJANDRO
NOTA:

Espero y te ayude en algo esta tab.
Si necesitas una tab en especial, escríbeme o visita...

*******************************************
* http://www.myspace.com/alejandrolauyola *
*******************************************

- Revisa la afinación de esta canción
- Pon atención a las instrucciones que están al final
- contiene las 2 guitarras y letra
- CALIFICA SOLO SI LEÍSTE "EL MANUAL"-

------------guitar 1------------------


     E  E  E  E  E  E  E  E     E  E  E  E  E  E  E  E
E||--------------------------|--------------------------|
B||--------------------------|--------------------------|
G||--------------------------|--------------------------|
D||--------------------------|--------------------------|
A||--3--3--3--3--2--2--2--2--|--2--2--2--2--2--2--2--2--|
E||--3--3--3--3--3--3--3--0--|--0--0--0--0--0--0--0--0--|


  E  E  E  E  E  E  E  E     W
--------------------------|-------------------|
--------------------------|-------------------|
--------------------------|-------------------|
-----------------------2--|--L----------------|
--3--3--3--3--2--2--2--2--|--L----------------|
--3--3--3--3--3--3--3-----|-------------------|


  E  E  E  E  E  E  E  E     E  E  E  E  E  E  E  E
--------------------------|--------------------------|
--------------------------|--------------------------|
--------------------------|--------------------------|
--------------------------|--------------------------|
--3--3--3--3--2--2--2--2--|--2--2--2--2--2--2--2--2--|
--3--3--3--3--3--3--3--0--|--0--0--0--0--0--0--0--0--|


  E  E  E  E  E  E  E  E     W
--------------------------|-------------------|
--------------------------|-------------------|
--------------------------|-------------------|
-----------------------2--|--L----------------|
--3--3--3--3--2--2--2--2--|--L----------------|
--3--3--3--3--3--3--3--0--|--L----------------|


  E  E  E  E  E  E  E  E     E  E  E  E  E  E  E  E
--------------------------|--------------------------|
--------------------------|--------------------------|
--------------------------|--------------------------|
--------------------------|--------------------------|
--3--3--3--3--2--2--2--2--|--2--2--2--2--2--2--2--2--|
--3--3--3--3--3--3--3--0--|--0--0--0--0--0--0--0--0--|


  E  E  E  E  E  E  E  E     E  E  E  E  E  E  E  E
--------------------------|--------------------------|
--------------------------|--------------------------|
--------------------------|--------------------------|
--------------------------|--------------------------|
--3--3--3--3--2--2--2--2--|--2--2--2--2--2--2--2--2--|
--3--3--3--3--3--3--3--0--|--0--0--0--0--0--0--0--0--|


  E  E  E  E  E  E  E  E     E  E  E  E  E  E  E  E
--------------------------|--------------------------|
--------------------------|--------------------------|
--------------------------|--------------------------|
--------------------------|--------------------------|
--3--3--3--3--2--2--2--2--|--2--2--2--2--2--2--2--2--|
--3--3--3--3--3--3--3--0--|--0--0--0--0--0--0--0--0--|


  E  E  E  E  E  E  E  E     W
--------------------------|-------------------|
--------------------------|-------------------|
--------------------------|-------------------|
-----------------------2--|--L----------------|
--3--3--3--3--2--2--2--2--|--L----------------|
--3--3--3--3--3--3--3-----|-------------------|


  E  E  E  E  E  E  E  E     E  E  E  E  E  E  E  E
--------------------------|--------------------------|
--------------------------|--------------------------|
--------------------------|--------------------------|
--------------0--0--0-----|--------------------------|
--5--5--5--5--2--2--2--2--|--2--2--2--2--2--2--2--2--|
--3--3--3--3-----------0--|--0--0--0--0--0--0--0--0--|


  E  E  E  E  E  E  E  E     W
--------------------------|-------------------|
--------------------------|-------------------|
--------------------------|-------------------|
--------------0--0--0-----|-------------------|
--5--5--5--5--2--2--2--2--|--L----------------|
--3--3--3--3-----------0--|--L----------------|


  E  E  E  E  E  E  E  E     E  E  E  E  E  E  E  E
--------------------------|--------------------------|
--------------------------|--------------------------|
--------------------------|--------------------------|
--------------------------|--------------------------|
--3--3--3--3--2--2--2--2--|--2--2--2--2--2--2--2--2--|
--3--3--3--3--3--3--3--0--|--0--0--0--0--0--0--0--0--|


                       v     v
  E  E  E  E  E  E  E  E     W                   E  Q    H        E
-----------------------0--|--L----------------|----------------------|
-----------------------0--|--L----------------|----------------------|
-----------------------0--|--L----------------|--7-------7-----------|
--------------------------|--L----------------|--7-------7-----------|
--3--3--3--3--2--2--2-----|--L----------------|--5-------5-----------|
--3--3--3--3--3--3--3-----|--L----------------|----------------------|


   E  Q     H        E     E  Q    H        E
------------------------|----------------------|
------------------------|----------------------|
------------------------|----------------------|
--10-------10-----------|--9-------9-----------|
--10-------10-----------|--9-------9-----------|
---8--------8-----------|--7-------7-----------|


  E  Q    H        E      E   E   E   E   E   E   E   E
----------------------|----------------------------------|
----------------------|----------------------------------|
----------------------|----------------------------------|
--7-------7-----------|--12----------12------------------|
--7-------7-----------|--12----------12------------------|
--5-------5-----------|--10--10--10--10--10--10--10--10--|


   E  E  E   E  E  E  E  E     E  E  E  E  E  E  E  E
----------------------------|--------------------------|
----------------------------|--------------------------|
----------------------------|--------------------------|
--10--------10--------------|--9--------9--------------|
--10--------10--------------|--9--------9--------------|
---8--8--8---8--8--8--8--8--|--7--7--7--7--7--7--7--7--|


  E  Q    H        E     E  Q    E  H           H        H
----------5-----------|----------5--L--------|--L-----------------|
----------5-----------|----------5--L--------|--L-----------------|
----------5-----------|----------5--L--------|--L-----------------|
--7-------------------|--7-------------------|--------------------|
--7-------------------|--7-------------------|--------------------|
--5-------------------|--5-------------------|--------------------|


       E  E  E  E  E  E  E  E     E  E  E  E  E  E  E  E
----|--------------------------|--------------------------|
----|--------------------------|--------------------------|
----|--------------------------|--------------------------|
----|--------------0--0--0-----|--------------------------|
----|--5--5--5--5--2--2--2--2--|--2--2--2--2--2--2--2--2--|
----|--3--3--3--3-----------0--|--0--0--0--0--0--0--0--0--|


  E  E  E  E  E  E  E  E     W
--------------------------|-------------------|
--------------------------|-------------------|
--------------------------|-------------------|
--------------0--0--0-----|-------------------|
--5--5--5--5--2--2--2--2--|--L----------------|
--3--3--3--3-----------0--|--L----------------|


  E  E  E  E  E  E  E  E     E  E  E  E  E  E  E  E
--------------------------|--------------------------|
--------------------------|--------------------------|
--------------------------|--------------------------|
--------------------------|--------------------------|
--3--3--3--3--2--2--2--2--|--2--2--2--2--2--2--2--2--|
--3--3--3--3--3--3--3--0--|--0--0--0--0--0--0--0--0--|


                       v     v
  E  E  E  E  E  E  E  E     W                   E  Q    H        E
-----------------------0--|--L----------------|----------------------|
-----------------------0--|--L----------------|----------------------|
-----------------------0--|--L----------------|--7-------7-----------|
--------------------------|-------------------|--7-------7-----------|
--3--3--3--3--2--2--2-----|--L----------------|--5-------5-----------|
--3--3--3--3--3--3--3-----|--L----------------|----------------------|


   E  Q     H        E     E  Q    H        E
------------------------|----------------------|
------------------------|----------------------|
------------------------|----------------------|
--10-------10-----------|--9-------9-----------|
--10-------10-----------|--9-------9-----------|
---8--------8-----------|--7-------7-----------|


  E  Q    H        E      E   E   E   E   E   E   E   E
----------------------|----------------------------------|
----------------------|----------------------------------|
----------------------|----------------------------------|
--7-------7-----------|--12----------12------------------|
--7-------7-----------|--12----------12------------------|
--5-------5-----------|--10--10--10--10--10--10--10--10--|


   E  E  E   E  E  E  E  E     E  E  E  E  E  E  E  E
----------------------------|--------------------------|
----------------------------|--------------------------|
----------------------------|--------------------------|
--10--------10--------------|--9--------9--------------|
--10--------10--------------|--9--------9--------------|
---8--8--8---8--8--8--8--8--|--7--7--7--7--7--7--7--7--|


  E  Q    H        E     E  Q    E  H           H        H
----------5-----------|----------5--L--------|--L-----------------|
----------5-----------|----------5--L--------|--L-----------------|
----------5-----------|----------5--L--------|--L-----------------|
--7-------------------|--7-------------------|--------------------|
--7-------------------|--7-------------------|--------------------|
--5-------------------|--5-------------------|--------------------|


  E  E  E  E  E  E  E  E     E  E  E  E  E  E  E  E
--------------------------|--------------------------|
--------------------------|--------------------------|
--------------------------|--------------------------|
--------------------------|--------------------------|
--3--3--3--3--2--2--2--2--|--2--2--2--2--2--2--2--2--|
--3--3--3--3--3--3--3--0--|--0--0--0--0--0--0--0--0--|


  E  E  E  E  E  E  E  E     E  E  E  E  E  E  E  E
--------------------------|--------------------------|
--------------------------|--------------------------|
--------------------------|--------------------------|
--------------------------|--------------------------|
--3--3--3--3--2--2--2--2--|--2--2--2--2--2--2--2--2--|
--3--3--3--3--3--3--3--0--|--0--0--0--0--0--0--0--0--|


  E  E  E  E  E  E  E  E     E  E  E  E  E  E  E  E
--------------------------|--------------------------|
--------------------------|--------------------------|
--------------------------|--------------------------|
--------------------------|--------------------------|
--3--3--3--3--2--2--2--2--|--2--2--2--2--2--2--2--2--|
--3--3--3--3--3--3--3--0--|--0--0--0--0--0--0--0--0--|


  E  E  E  E  E  E  E  E     W                   E  Q    H        E
--------------------------|-------------------|----------------------|
--------------------------|-------------------|----------------------|
--------------------------|-------------------|--7-------7-----------|
-----------------------2--|--L----------------|--7-------7-----------|
--3--3--3--3--2--2--2--2--|--L----------------|--5-------5-----------|
--3--3--3--3--3--3--3-----|-------------------|----------------------|


   E  Q     H        E     E  Q    H        E
------------------------|----------------------|
------------------------|----------------------|
------------------------|----------------------|
--10-------10-----------|--9-------9-----------|
--10-------10-----------|--9-------9-----------|
---8--------8-----------|--7-------7-----------|


  E  Q    H        E      E   E   E   E   E   E   E   E
----------------------|----------------------------------|
----------------------|----------------------------------|
----------------------|----------------------------------|
--7-------7-----------|--12----------12------------------|
--7-------7-----------|--12----------12------------------|
--5-------5-----------|--10--10--10--10--10--10--10--10--|


   E  E  E   E  E  E  E  E     E  E  E  E  E  E  E  E
----------------------------|--------------------------|
----------------------------|--------------------------|
----------------------------|--------------------------|
--10--------10--------------|--9--------9--------------|
--10--------10--------------|--9--------9--------------|
---8--8--8---8--8--8--8--8--|--7--7--7--7--7--7--7--7--|


  E  Q    H        E     E  Q    E  H           H        H
----------5-----------|----------5--L--------|--L-----------------|
----------5-----------|----------5--L--------|--L-----------------|
----------5-----------|----------5--L--------|--L-----------------|
--7-------------------|--7-------------------|--------------------|
--7-------------------|--7-------------------|--------------------|
--5-------------------|--5-------------------|--------------------|


  E  E  E  E  E  E  E  E     E  E  E  E  E  E  E  E
--------------------------|--------------------------|
--------------------------|--------------------------|
--------------------------|--7--7--x--x--x--x--x--x--|
--5--5--x--x--x--x--x--x--|--7--7--x--x--x--x--x--x--|
--5--5--x--x--x--x--x--x--|--5--5--x--x--x--x--x--x--|
--3--3--x--x--x--x--x--x--|--------------------------|


  E  E  E  E  E  E  E  E      E   E   E   E   E   E   E   E
--------------------------|----------------------------------|
--------------------------|----------------------------------|
--------------------------|----------------------------------|
--7--7--x--x--x--x--x--x--|--10--10--10--10--10--10--10--10--|
--7--7--x--x--x--x--x--x--|--10--10--10--10--10--10--10--10--|
--5--5--x--x--x--x--x--x--|---8---8---8---8---8---8---8---8--|


  E  E  E  E  E  E  E  E     E  E  E  E  E  E  E  E
--------------------------|--------------------------|
--------------------------|--------------------------|
--------------------------|--7--7--7--7--7--7--7--7--|
--5--5--5--5--5--5--5--5--|--7--7--7--7--7--7--7--7--|
--5--5--5--5--5--5--5--5--|--5--5--5--5--5--5--5--5--|
--3--3--3--3--3--3--3--3--|--------------------------|


  E  E  E  E  E  E  E  E      E   E   E   E   E   E   E   E
--------------------------|----------------------------------|
--------------------------|----------------------------------|
--------------------------|----------------------------------|
--7--7--7--7--7--7--7--7--|--10--10--10--10--10--10--10--10--|
--7--7--7--7--7--7--7--7--|--10--10--10--10--10--10--10--10--|
--5--5--5--5--5--5--5--5--|---8---8---8---8---8---8---8---8--|


  E  E  E  E  E  E  E  E     E  E  E  E  E  E  E  E
--------------------------|--------------------------|
--------------------------|--------------------------|
--------------------------|--7--7--x--x--x--x--x--x--|
--5--5--x--x--x--x--x--x--|--7--7--x--x--x--x--x--x--|
--5--5--x--x--x--x--x--x--|--5--5--x--x--x--x--x--x--|
--3--3--x--x--x--x--x--x--|--------------------------|


  E  E  E  E  E  E  E  E      E   E   E   E   E   E   E   E
--------------------------|----------------------------------|
--------------------------|----------------------------------|
--------------------------|----------------------------------|
--7--7--x--x--x--x--x--x--|--10--10--10--10--10--10--10--10--|
--7--7--x--x--x--x--x--x--|--10--10--10--10--10--10--10--10--|
--5--5--x--x--x--x--x--x--|---8---8---8---8---8---8---8---8--|


  E  E  E  E  E  E  E  E     E  E  E  E  E  E  E  E
--------------------------|--------------------------|
--------------------------|--------------------------|
--------------------------|--7--7--7--7--7--7--7--7--|
--5--5--5--5--5--5--5--5--|--7--7--7--7--7--7--7--7--|
--5--5--5--5--5--5--5--5--|--5--5--5--5--5--5--5--5--|
--3--3--3--3--3--3--3--3--|--------------------------|


  E  E  E  E  E  E  E  E      E   E   E   E   E   E   E   E
--------------------------|----------------------------------|
--------------------------|----------------------------------|
--------------------------|----------------------------------|
--7--7--7--7--7--7--7--7--|--10--10--10--10--10--10--10--10--|
--7--7--7--7--7--7--7--7--|--10--10--10--10--10--10--10--10--|
--5--5--5--5--5--5--5--5--|---8---8---8---8---8---8---8---8--|


  E  E  E  E  E  E  E  E     E  E  E  E  E  E  E  E
--------------------------|--------------------------|
--------------------------|--------------------------|
--------------------------|--7--7--7--7--7--7--7--7--|
--5--5--5--5--5--5--5--5--|--7--7--7--7--7--7--7--7--|
--5--5--5--5--5--5--5--5--|--5--5--5--5--5--5--5--5--|
--3--3--3--3--3--3--3--3--|--------------------------|


  E  E  E  E  E  E  E  E      E   E   E   E   E   E   E   E
--------------------------|----------------------------------|
--------------------------|----------------------------------|
--------------------------|----------------------------------|
--7--7--7--7--7--7--7--7--|--10--10--10--10--10--10--10--10--|
--7--7--7--7--7--7--7--7--|--10--10--10--10--10--10--10--10--|
--5--5--5--5--5--5--5--5--|---8---8---8---8---8---8---8---8--|


  E  E  E  E  E  E  E  E     E  E  E  E  E  E  E  E
--------------------------|--------------------------|
--------------------------|--------------------------|
--------------------------|--7--7--7--7--7--7--7--7--|
--5--5--5--5--5--5--5--5--|--7--7--7--7--7--7--7--7--|
--5--5--5--5--5--5--5--5--|--5--5--5--5--5--5--5--5--|
--3--3--3--3--3--3--3--3--|--------------------------|


  E  E  E  E  E  E  E  E      E   E   E   E   E   E   E   E
--------------------------|----------------------------------|
--------------------------|----------------------------------|
--------------------------|----------------------------------|
--7--7--7--7--7--7--7--7--|--10--10--10--10--10--10--10--10--|
--7--7--7--7--7--7--7--7--|--10--10--10--10--10--10--10--10--|
--5--5--5--5--5--5--5--5--|---8---8---8---8---8---8---8---8--|


  E  E  E  E  E  E  E  E     E  E  E  E  E  E  E  E
--------------------------|--------------------------|
--------------------------|--------------------------|
--------------------------|--7--7--7--7--7--7--7--7--|
--5--5--5--5--5--5--5--5--|--7--7--7--7--7--7--7--7--|
--5--5--5--5--5--5--5--5--|--5--5--5--5--5--5--5--5--|
--3--3--3--3--3--3--3--3--|--------------------------|


  E  E  E  E  E  E  E  E      E   E   E   E   E   E   E   E
--------------------------|----------------------------------|
--------------------------|----------------------------------|
--------------------------|----------------------------------|
--7--7--7--7--7--7--7--7--|--10--10--10--10--10--10--10--10--|
--7--7--7--7--7--7--7--7--|--10--10--10--10--10--10--10--10--|
--5--5--5--5--5--5--5--5--|---8---8---8---8---8---8---8---8--|


  E  E  E  E  E  E  E  E     E  E  E  E  E  E  E  E
--------------------------|--------------------------|
--------------------------|--------------------------|
--------------------------|--7--7--7--7--7--7--7--7--|
--5--5--5--5--5--5--5--5--|--7--7--7--7--7--7--7--7--|
--5--5--5--5--5--5--5--5--|--5--5--5--5--5--5--5--5--|
--3--3--3--3--3--3--3--3--|--------------------------|


  E  E  E  E  E  E  E  E      E   E   E   E   E   E   E   E
--------------------------|----------------------------------|
--------------------------|----------------------------------|
--------------------------|----------------------------------|
--7--7--7--7--7--7--7--7--|--10--10--10--10--10--10--10--10--|
--7--7--7--7--7--7--7--7--|--10--10--10--10--10--10--10--10--|
--5--5--5--5--5--5--5--5--|---8---8---8---8---8---8---8---8--|


  E  E  E  E  E  E  E  E     E  E  E  E  E  E  E  E
--------------------------|--------------------------|
--------------------------|--------------------------|
--------------------------|--7--7--7--7--7--7--7--7--|
--5--5--5--5--5--5--5--5--|--7--7--7--7--7--7--7--7--|
--5--5--5--5--5--5--5--5--|--5--5--5--5--5--5--5--5--|
--3--3--3--3--3--3--3--3--|--------------------------|


  E  E  E  E  E  E  E  E      E   E   E   E   E   E   E   E
--------------------------|----------------------------------|
--------------------------|----------------------------------|
--------------------------|----------------------------------|
--7--7--7--7--7--7--7--7--|--10--10--10--10--10--10--10--10--|
--7--7--7--7--7--7--7--7--|--10--10--10--10--10--10--10--10--|
--5--5--5--5--5--5--5--5--|---8---8---8---8---8---8---8---8--|


  W
-------------------||
-------------------||
-------------------||
--5----------------||
--5----------------||
--3----------------||




Duration Legend
---------------
W - whole
H - half
Q - quarter
E - 8th
S - 16th
T - 32nd
X - 64th
. - note dotted
|-n-|  - n-tuplets


Tablature Legend
----------------
L - tied note
x - dead note
g - grace note
(n) - ghost note
> - accentuded note
NH - natural harmonic
AH - artificial harmonic
TH - tapped harmonic
SH - semi harmonic
PH - pitch harmonic
h - hammer on
p - pull off
b - bend
br - bendRelease
pb - preBend
pbr - preBendRelease
brb - bendReleaseBend
n/ - tremolo bar dip
n - tremolo bar dive
-/n - tremolo bar Release up
/n - tremolo bar inverted dip
/n - tremolo bar return
-n - tremolo bar Release down
S - shift slide
s - legato slide
/ -  slide into from below or out of upwards
 -  slide into from above or out of downwards
~ - vibrato
W - wide vibrato
tr - trill
TP - tremolo picking
T - tapping
S - slap
P - pop
< - fade in
^ - brush up
v - brush down

--------------------------guitar 2-----------------------

NOTA:

Espero y te ayude en algo esta tab.
Si necesitas una tab en especial, escríbeme o visita...

*******************************************
* http://www.myspace.com/alejandrolauyola *
*******************************************

- Revisa la afinación de esta canción en especial
- Pon atención a las instrucciones que están al final
- contiene las 2 guitarras y letra
- CALIFICA SOLO SI LEÍSTE "EL MANUAL"-

                            Bribriblibli



             Q     S   S  S   S  H            H         E  Q     E
E||-------|-------------------------------|-------------------------|
B||-------|---------------------12--------|---L---------L-----------|
G||-------|---------------------12--------|---L---------L-----------|
D||-------|--------------12h-14-----------|---------------------14--|
A||-------|-------12h-14------------------|---------------------14--|
E||-------|-------------------------------|-------------------------|


   W                                   E  E  E  E  E  E  E  E
--------------------|-------|-------|--------------------------|
--------------------|-------|-------|--------------------------|
--------------------|-------|-------|--------0-----------0--0--|
---L----------------|-------|-------|-----2-----------0-----2--|
---L----------------|-------|-------|--3--------3--2--------2--|
--------------------|-------|-------|-----------------------0--|


  W                   E   E  E  E   E  E   E    E
-------------------|--------------------------------|
-------------------|---------8---------8--10b--10b--|
--L----------------|------------7h--9---------------|
--L----------------|--7h--9-------------------------|
--L----------------|--------------------------------|
--L----------------|--------------------------------|


   E   E   E      E   E  E   E   E
------10------------------------------|
---L------10pbr--10p--8---------------|
-------------------------9h--9--11br--|
--------------------------------------|
--------------------------------------|
--------------------------------------|


  E   E     E   E   E   E     E   E
-------------------------------------|
-------------------------------------|
--9----------------------------------|
-------------------------------------|
-----12br--12--10--10--12br--12------|
---------------------------------12--|


   E  E   S   S  S   S  Q     E   E
-------------------------------------|
-------------------------------------|
---------------------------------12--|
-----------------------12----14------|
----------------10h-14---------------|
---L--0--10h-12----------------------|


   E   E   E     E    E   E     E   E
---------------------------------------|
------12--12---------------------------|
------12--12-------------12--------12--|
--12---------------------12--8g14------|
--------------8g14h--14----------------|
---------------------------------------|


    E   E   E   E    Q      S  S   S  S
---------------------------12-15p-12----|
-------15--17--15h--15b--------------15-|
--/16-----------------------------------|
----------------------------------------|
----------------------------------------|
----------------------------------------|


   E   E    E   E     E   E    E   E      W
--12----------------------------------|--------------------|-------|
------15b--15-------------------------|--------------------|-------|
---------------14br--14--14p--12------|--------------------|-------|
----------------------------------14--|---L----------------|-------|
--------------------------------------|--------------------|-------|
--------------------------------------|--------------------|-------|


          E  E  E  E  E  E  E  E     H        H
-------|--------------------------|--------------------|-------|
-------|--------------------------|--------------------|-------|
-------|--------0-----------0--0--|--L-----------------|-------|
-------|-----2-----------0-----2--|--L-----------------|-------|
-------|--3--------3--2--------2--|--L-----------------|-------|
-------|-----------------------0--|--L-----------------|-------|


                           E  Q     H        E
-------|-------|-------|------------------------|
-------|-------|-------|------------------------|
-------|-------|-------|------------------------|
-------|-------|-------|--12-------12-----------|
-------|-------|-------|--12-------12-----------|
-------|-------|-------|--10-------10-----------|


   E  Q     H        E     E  Q    H        E
------------------------|----------------------|
------------------------|----------------------|
------------------------|----------------------|
--10-------10-----------|--9-------9-----------|
--10-------10-----------|--9-------9-----------|
---8--------8-----------|--7-------7-----------|


  E  Q    H        E      E  Q     H        E
----------------------|------------------------|
----------------------|------------------------|
----------------------|------------------------|
--7-------7-----------|--12-------12-----------|
--7-------7-----------|--12-------12-----------|
--5-------5-----------|--10-------10-----------|


   E  Q     H        E     E  Q    H        E
------------------------|----------------------|
------------------------|----------------------|
------------------------|----------------------|
--10-------10-----------|--9-------9-----------|
--10-------10-----------|--9-------9-----------|
---8--------8-----------|--7-------7-----------|


  E  Q    H        E     E  Q    E  H           H        H
----------5-----------|----------5--L--------|--L-----------------|
----------5-----------|----------5--L--------|--L-----------------|
----------5-----------|----------5--L--------|--L-----------------|
--7-------------------|--7-------------------|--------------------|
--7-------------------|--7-------------------|--------------------|
--5-------------------|--5-------------------|--------------------|


                          E  E  E  E  E  E  E  E
-------|-------|-------|--------------------------|
-------|-------|-------|--------------------------|
-------|-------|-------|--------0-----------0--0--|
-------|-------|-------|-----2-----------0-----2--|
-------|-------|-------|--3--------3--2--------2--|
-------|-------|-------|-----------------------0--|


  H        H
--------------------|-------|-------|-------|-------|
--------------------|-------|-------|-------|-------|
--L-----------------|-------|-------|-------|-------|
--L-----------------|-------|-------|-------|-------|
--L-----------------|-------|-------|-------|-------|
--L-----------------|-------|-------|-------|-------|


   E  Q     H        E      E  Q     H        E
------------------------|------------------------|
------------------------|------------------------|
------------------------|------------------------|
--12-------12-----------|--10-------10-----------|
--12-------12-----------|--10-------10-----------|
--10-------10-----------|---8--------8-----------|


  E  Q    H        E     E  Q    H        E
----------------------|----------------------|
----------------------|----------------------|
----------------------|----------------------|
--9-------9-----------|--7-------7-----------|
--9-------9-----------|--7-------7-----------|
--7-------7-----------|--5-------5-----------|


   E  Q     H        E      E  Q     H        E
------------------------|------------------------|
------------------------|------------------------|
------------------------|------------------------|
--12-------12-----------|--10-------10-----------|
--12-------12-----------|--10-------10-----------|
--10-------10-----------|---8--------8-----------|


  E  Q    H        E     E  Q    H        E     E  Q    E  H
----------------------|----------5-----------|----------5--L--------|
----------------------|----------5-----------|----------5--L--------|
----------------------|----------5-----------|----------5--L--------|
--9-------9-----------|--7-------------------|--7-------------------|
--9-------9-----------|--7-------------------|--7-------------------|
--7-------7-----------|--5-------------------|--5-------------------|


  Q    E   E   E     E   Q
--L---------------------------|
--L---------------------------|
--L-------12--14br--14--12----|
------------------------------|
------------------------------|
------------------------------|


   E    E     S   S  E    E     E      E   E
--------------------10b--15pb--15pbr--12-------|
--10h--10br--15p-12-----------------------15h--|
-----------------------------------------------|
-----------------------------------------------|
-----------------------------------------------|
-----------------------------------------------|


   Q     S   S  E    E   E   E   E
------------------------------------|
--15----15p-12----------------------|
---------------14b--12------14------|
------------------------14------14--|
------------------------------------|
------------------------------------|


   S  S   S  S  S   S  S  S   S  S  S  S   S  E.
---------------------------------------------------|
--12------------------12---------------------------|
--12-14p-12----12h-14----14p-12----12--------12~---|
------------14------------------14----12h-14-------|
---------------------------------------------------|
---------------------------------------------------|


   Q.      S   S  E    E   E   E       Q     E   E    E   E   E   E
-----------------------------------|---------------------------------|
-----------------------------------|--------17-----------15----------|
---L----------------------12--14h--|--17--------16h--16----------16--|
----------14p-12-14h--14-----------|-------------------------17------|
-----------------------------------|---------------------------------|
-----------------------------------|---------------------------------|


   E   E   E   E    E     E   E      E
----------------------------------------|
-------------------------15-------------|
---L------12--14b--14pb------14pbr--12--|
------14--------------------------------|
----------------------------------------|
----------------------------------------|


   E    Q     E   E   E   Q        Q     E   E    H
-------------15--14------15----|---L----15--17b--17--------|
------/17------------15--17----|---L-----------------------|
---L---------------------------|---------------------------|
-------------------------------|---------------------------|
-------------------------------|---------------------------|
-------------------------------|---------------------------|


   H            E   E   E   E      E   E   E   E    E   Q     E
-------------------------------|---------------------------------|
--15br~---------L--15--15--19--|---L-------------------------10--|
-------------------------------|-----------------------14--------|
-------------------------------|-----------------------14--------|
-------------------------------|--------------10h--14------------|
-------------------------------|------10--12---------------------|


   E   Q      E    E   E   E   E
----------------------------------|
---L--12~-----------------15--17--|
-------------14h--16--17----------|
----------------------------------|
----------------------------------|
----------------------------------|


   E   E   E   E   E   E   E    E
--14--15--17--15--14--15--15b--17b--|
------------------------------------|
------------------------------------|
------------------------------------|
------------------------------------|
------------------------------------|


   E   E   E    E   E    E   E   E
---L--17--15h--15--17p--15------15--|
----------------------------17------|
------------------------------------|
------------------------------------|
------------------------------------|
------------------------------------|


   Q      E   E    Q     E   E        H         E   E   E    S   S
---------15-------------15--------|--------------------------------|
--10b--------15b---L--------10b~--|---L--------19--10--17h--19p-17-|
----------------------------------|--------------------------------|
----------------------------------|--------------------------------|
----------------------------------|--------------------------------|
----------------------------------|--------------------------------|


   S   S   S  S   S   S  S   S   S  S   S   S S   S  S S
----------------------------------------------------------|
--15h-17p-15-13h-15p-13-12h-13p-12-10h-12p-10-8h-10p-8-7h-|
----------------------------------------------------------|
----------------------------------------------------------|
----------------------------------------------------------|
----------------------------------------------------------|


  S  S S  S  S S  S  S Q    Q       H        H
---------------------------------|--------------------|
--8p-7-5h-7p-5-3h-5p-3-----------|--------------------|
-----------------------0----L----|--L-----------------|
-----------------------0----L----|--L-----------------|
---------------------------------|--------------------|
---------------------------------|--------------------|


  E  E  E  E  E  E  E  E     E  E  E  E  E  E  E  E
--------------------------|--------------------------|
--------------------------|--------------------------|
--------------------------|--7--7--x--x--x--x--x--x--|
--5--5--x--x--x--x--x--x--|--7--7--x--x--x--x--x--x--|
--5--5--x--x--x--x--x--x--|--5--5--x--x--x--x--x--x--|
--3--3--x--x--x--x--x--x--|--------------------------|


  E  E  E  E  E  E  E  E      E  E   E  E   E  E   E  E
--------------------------|------------------------------|
--------------------------|------------------------------|
--------------------------|------------------------------|
--7--7--x--x--x--x--x--x--|--10-----10-----10-----10-----|
--7--7--x--x--x--x--x--x--|--10-----10-----10-----10-----|
--5--5--x--x--x--x--x--x--|---8------8------8------8-----|


  E  E  E  E  E  E  E  E     E  E  E  E  E  E  E  E
--------------------------|--------------------------|
--------------------------|--------------------------|
--------------------------|--7-----7-----7-----7-----|
--5-----5-----5-----5-----|--7-----7-----7-----7-----|
--5-----5-----5-----5-----|--5-----5-----5-----5-----|
--3-----3-----3-----3-----|--------------------------|


  E  E  E  E  E  E  E  E      E  E   E  E   E  E   E  E
--------------------------|------------------------------|
--------------------------|------------------------------|
--------------------------|------------------------------|
--7-----7-----7-----7-----|--10-----10-----10-----10-----|
--7-----7-----7-----7-----|--10-----10-----10-----10-----|
--5-----5-----5-----5-----|---8------8------8------8-----|


  E  E  E  E  E  E  E  E     E  E  E  E  E  E  E  E
--------------------------|--------------------------|
--------------------------|--------------------------|
--------------------------|--7--7--x--x--x--x--x--x--|
--5--5--x--x--x--x--x--x--|--7--7--x--x--x--x--x--x--|
--5--5--x--x--x--x--x--x--|--5--5--x--x--x--x--x--x--|
--3--3--x--x--x--x--x--x--|--------------------------|


  E  E  E  E  E  E  E  E      E  E   E  E   E  E   E  E
--------------------------|------------------------------|
--------------------------|------------------------------|
--------------------------|------------------------------|
--7--7--x--x--x--x--x--x--|--10-----10-----10-----10-----|
--7--7--x--x--x--x--x--x--|--10-----10-----10-----10-----|
--5--5--x--x--x--x--x--x--|---8------8------8------8-----|


  E  E  E  E  E  E  E  E     E  E  E  E  E  E  E  E
--------------------------|--------------------------|
--------------------------|--------------------------|
--------------------------|--7-----7-----7-----7-----|
--5-----5-----5-----5-----|--7-----7-----7-----7-----|
--5-----5-----5-----5-----|--5-----5-----5-----5-----|
--3-----3-----3-----3-----|--------------------------|


  E  E  E  E  E  E  E  E      E  E   E  E   E  E   E  E
--------------------------|------------------------------|
--------------------------|------------------------------|
--------------------------|------------------------------|
--7-----7-----7-----7-----|--10-----10-----10-----10-----|
--7-----7-----7-----7-----|--10-----10-----10-----10-----|
--5-----5-----5-----5-----|---8------8------8------8-----|


  E  E  E  E  E  E  E  E     E  E  E  E  E  E  E  E
--------------------------|--------------------------|
--------------------------|--------------------------|
--------------------------|--7-----7-----7-----7-----|
--5-----5-----5-----5-----|--7-----7-----7-----7-----|
--5-----5-----5-----5-----|--5-----5-----5-----5-----|
--3-----3-----3-----3-----|--------------------------|


  E  E  E  E  E  E  E  E      E  E   E  E   E  E   E  E
--------------------------|------------------------------|
--------------------------|------------------------------|
--------------------------|------------------------------|
--7-----7-----7-----7-----|--10-----10-----10-----10-----|
--7-----7-----7-----7-----|--10-----10-----10-----10-----|
--5-----5-----5-----5-----|---8------8------8------8-----|


  E  E  E  E  E  E  E  E     E  E  E  E  E  E  E  E
--------------------------|--------------------------|
--------------------------|--------------------------|
--------------------------|--7-----7-----7-----7-----|
--5-----5-----5-----5-----|--7-----7-----7-----7-----|
--5-----5-----5-----5-----|--5-----5-----5-----5-----|
--3-----3-----3-----3-----|--------------------------|


  E  E  E  E  E  E  E  E      E  E   E  E   E  E   E  E
--------------------------|------------------------------|
--------------------------|------------------------------|
--------------------------|------------------------------|
--7-----7-----7-----7-----|--10-----10-----10-----10-----|
--7-----7-----7-----7-----|--10-----10-----10-----10-----|
--5-----5-----5-----5-----|---8------8------8------8-----|


  E  E  E  E  E  E  E  E     E  E  E  E  E  E  E  E
--------------------------|--------------------------|
--------------------------|--------------------------|
--------------------------|--7-----7-----7-----7-----|
--5-----5-----5-----5-----|--7-----7-----7-----7-----|
--5-----5-----5-----5-----|--5-----5-----5-----5-----|
--3-----3-----3-----3-----|--------------------------|


  E  E  E  E  E  E  E  E      E  E   E  E   E  E   E  E
--------------------------|------------------------------|
--------------------------|------------------------------|
--------------------------|------------------------------|
--7-----7-----7-----7-----|--10-----10-----10-----10-----|
--7-----7-----7-----7-----|--10-----10-----10-----10-----|
--5-----5-----5-----5-----|---8------8------8------8-----|


  E  E  E  E  E  E  E  E     E  E  E  E  E  E  E  E
--------------------------|--------------------------|
--------------------------|--------------------------|
--------------------------|--7-----7-----7-----7-----|
--5-----5-----5-----5-----|--7-----7-----7-----7-----|
--5-----5-----5-----5-----|--5-----5-----5-----5-----|
--3-----3-----3-----3-----|--------------------------|


  E  E  E  E  E  E  E  E      E  E   E  E   E  E   E  E
--------------------------|------------------------------|
--------------------------|------------------------------|
--------------------------|------------------------------|
--7-----7-----7-----7-----|--10-----10-----10-----10-----|
--7-----7-----7-----7-----|--10-----10-----10-----10-----|
--5-----5-----5-----5-----|---8------8------8------8-----|


  E  E  E  E  E  E  E  E     E  E  E  E  E  E  E  E
--------------------------|--------------------------|
--------------------------|--------------------------|
--------------------------|--7-----7-----7-----7-----|
--5-----5-----5-----5-----|--7-----7-----7-----7-----|
--5-----5-----5-----5-----|--5-----5-----5-----5-----|
--3-----3-----3-----3-----|--------------------------|


  E  E  E  E  E  E  E  E      E  E   E  E   E  E   E  E
--------------------------|------------------------------|
--------------------------|------------------------------|
--------------------------|------------------------------|
--7-----7-----7-----7-----|--10-----10-----10-----10-----|
--7-----7-----7-----7-----|--10-----10-----10-----10-----|
--5-----5-----5-----5-----|---8------8------8------8-----|


  W
-------------------||
-------------------||
-------------------||
--5----------------||
--5----------------||
--3----------------||




Duration Legend
---------------
W - whole
H - half
Q - quarter
E - 8th
S - 16th
T - 32nd
X - 64th
. - note dotted
|-n-|  - n-tuplets


Tablature Legend
----------------
L - tied note
x - dead note
g - grace note
(n) - ghost note
> - accentuded note
NH - natural harmonic
AH - artificial harmonic
TH - tapped harmonic
SH - semi harmonic
PH - pitch harmonic
h - hammer on
p - pull off
b - bend
br - bendRelease
pb - preBend
pbr - preBendRelease
brb - bendReleaseBend
n/ - tremolo bar dip
n - tremolo bar dive
-/n - tremolo bar Release up
/n - tremolo bar inverted dip
/n - tremolo bar return
-n - tremolo bar Release down
S - shift slide
s - legato slide
/ -  slide into from below or out of upwards
 -  slide into from above or out of downwards
~ - vibrato
W - wide vibrato
tr - trill
TP - tremolo picking
T - tapping
S - slap
P - pop
< - fade in
^ - brush up
v - brush down

--------------letra-----------------
Bri bri bli bli - Extremoduro



Me acuerdo de tí
me cago en tus muertos,
no puedo dormir
me sueño que has vuelto.
Sueño con tu piel, me siento mejor
ya no tengo sed, ya puedo bailar de flor en flor,
me vuelvo a perder entre el edredón
me vuelvo a quedar sin sol, sin sol, sin sol.
De tanto pensar,
de perder el tiempo,
de tanto privar
por poco reviento.
Sueño con tu piel, me siento mejor
ya no tengo sed, ya puedo bailar de flor en flor,
me vuelvo a perder entre el edredón
me vuelvo a quedar sin sol, sin sol, sin sol.
Me coge de la mano
y yo me sueño con tu pelo
para estar tan colgado
hace falta echarle güevos.
Os regalo mis canciones
y me apuntan con el dedo
mira por dónde va el Robe
para mí que ya está pedo.
Me coge de la mano
y yo me sueño con tu pelo
para estar tan colgado
hace falta echarle güevos.
Os regalo mis canciones
y me apuntan con el dedo
mira por dónde va el Robe
para mí que ya está pedo.


-----------------------------------------------------------
La cancion Bri bri bli bli del cantante Extremoduro
esta incluida en el disco Iros todos a tomar por culo
editado en el 1997.Otros album del artista son Material
defectuoso ,La ley innata ,Canciones sin voz ,Grandes Exitos y
Fracasos (Episodio Primero) ,Grandes Exitos y Fracasos
(Episodio Segundo) ,Yo minoria absoluta ,Canciones prohibidas ,
Iros todos a tomar por culo ,La Hoguera ,Desidia ,
Este fichero es trabajo propio de su transcriptor y representa su interpretación personal de la canción. El material contenido en esta página es
para exclusivo uso privado, por lo que se prohibe su reproducción o retransmisión, así como su uso para fines comerciales.

© LaCuerda.net · Aviso Legal · Privacidad