Tablatura para Guitarra de Extremoduro: Ama, ama y ensancha el alma
Conexión · Inscripción
Letras y Acordes
Pantalla Completa
Imprimir
Versión Texto
Añadir Favorito
Otras Versiones

Mostrar Diagramas
Desfile Automático
Manipular Acordes
Formato del Texto


Ama, ama y ensancha el alma(TAB)

Extremoduro

calidad:
extr0013
AUTOR: Extremoduro  corregir
ALBUM: desconocido
Enviado por Kike
Bueno aquí os dejo esta pedazo de canción.
Que la disfruteis y os divirtais tocándola..y a ver si se siguen mandando
canciones de extremoduro....
Va dedicada a todos los seguidores de extremo, a mi gente de toledo y
a esa clase de dibujo técnico que como yo, disfrutan de la música y
en especial a los “componentes” del grupo, búres y lamber.

Si teneis alguna duda, me quereis comentar algo o lo que sea escribidme
1 e-mail a:

erasa_9@hotmail.com

SALUD¡    KIK


x= muffled strings
h= hammer on
p.m= palm muting
f= full
s= slide
p= pull-off


e||-----------------|-2---------2---------|-4---x--4----5-|----4---2----||
B||-5-5-5-5-5-5-5-5-|-3-p-2-----3-p-2-----|-5---x--5----5-|----5---3----||
G||-----------------|-------4-2-------4-2-|---------------|-------------||
D||-----------------|---------------------|---------------|-------------||
A||-----------------|---------------------|---------------|-------------||
E||-----------------|---------------------|---------------|-------------||

e||-----------------|---------------------|---------------|-------------||
B||-----------------|---------------------|---------------|-------------||
G||-----------------|---------------------|---------------|-------------||
D||-----------------|---------------------|---------------|-5------7----||
A||-7-7-7-7----7-7--|-2--2--2--2----------|-4-4-4-4-------|-4------5----||
E||-5-5-5-5----5-5--|-0--0--0--0----------|-2-2-2-2-------|-------------||

Quisiera q mi voz fuera tan fuerte q a veces retumbaran ls montañas y escu-
brazos,la mente y repartios q sólo os enseñaron l odio y la avaricia y yo

e||-----------------|---------------------|------0--------|--------------|
B||-----------------|---------------------|-2----------2--|--------------|
G||-----------------|---------------------|-2-------------|--------------|
D||-7-----7---------|-9------9------------|-2-------------|-5----7-------|
A||-7-----7-----7---|-7------7------------|---------------|-4----5-------|
E||-5-----5---------|---------------------|---------------|--------------|

chárais las mentes social adormecidas las palabras de amor de mi garganta.
Quiero que todos como hermanos repartamos amores, lágrimas  y  sonrisas.

e|------------------|---------------------|------0--------|--------------|
B|------------------|---------------------|-2----------2--|--------------|
G|------------------|---------------------|-2-------------|--------------|
D|-7-----7----------|-9------9------------|-2-------------|-5----7-------|
A|-7-----7------7---|-7------7------------|---------------|-4----5-------|
E|-5-----5----------|---------------------|---------------|--------------|

e|------------------|---------------------|---------------|--------------|
B|------------------|-2-------------------|---------------|-9--s--7------|
G|-9------------9---|---------------------|-9-------------|-9--s--7------|
D|-------7----------|---------------------|---------7-----|--------------|
A|------------------|---------------------|---------------|--------------|
E|------------------|---------------------|---------------|--------------|

e|------------------|---------------------|---------------|--------------|
B|------------------|-5-------------------|---------------|--------------|
G|-6-----------6----|---------------------|-5-------------|--------------|
D|-------7----------|---------------------|---------7-----|--------------|
A|------------------|---------------------|---------------|--------------|
E|------------------|---------------------|---------------|--------------|
                                                                Abrid los
                                                                  De pe-
e|------------------|---------------------|---------------|-------------||
B|------------------|-2-------------------|-15------------|-9--s--7-----||
G|-9-----5-----9----|---------------------|---------------|-9--s--7-----||
D|------------------|---------------------|---------11----|-------------||
A|------------------|---------------------|---------------|-------------||
E|------------------|---------------------|---------------|-------------||

e|------------------|---------------------|---------------|-------------||
B|-2-----------7----|-5--------5----------|---------------|-------------||
G|-------2----------|---------------------|-5-------------|-6-----7-----||
D|------------------|---------------------|---------7-----|-6-----7-----||
A|------------------|---------------------|---------------|-4-----5-----||
E|------------------|---------------------|---------------|-------------||
  queño m impusieron las costumbre m educaron para hombre adinerado pero a-

e|------------------|---------------------|---------------|--------------|
B|------------------|---------------------|------2--------|--------------|
G|------------------|-4f-----4-p-2--4-p-2-|------2--------|-6-----7------|
D|-2-2-2-2-2-2-2-2--|---------------------|-4-------------|-6-----7------|
A|-0-0-0-0-0-0-0-0--|---------------------|------------4--|-4-----5------|
E|------------------|---------------------|---------------|--------------|
     P.M............
   hora prefiero ser un indio que un importante abogado. Hay que dejar el

e|------------------|---------------------|---------------|-4-----5------|
B|------------------|---------------------|---------------|-5-----5------|
G|-2---2------------|---------------------|---------------|-5-----7------|
D|-2---2------------|-2-------------------|-4-------------|-5-----7------|
A|-0---0------------|-2-------------------|-4-------------|-4-----5------|
E|------------------|-0-------------------|-2-------------|--------------|
camino social alquitranado porq n él se ns quedan pegadas ls pezuñas ay q

e||-----------------|---------------------|-----4---------|-------5------|
B||-----------------|---------------------|-----5---------|-------5------|
G||-2--------4f-----|-4------------4------|-----4---------|-------7------|
D||-2---------------|----------2----------|-----0---------|-------7------|
A||-0---------------|---------------------|-4-------4--4--|-5------------|
E||-----------------|---------------------|---------------|--------------|
 volar libre al sol y al vient repartiend l amor q tengas dentro.Hay q de-

e|------------------|---------------------|---------4-----|------5------||
B|------------------|---------------------|-----5---------|---5-----5---||
G|-2---4f------p-2--|-4------------4------|-----4---------|---7-------7-||
D|-2----------------|----------2-------2--|-----5---------|---7---------||
A|-0----------------|---------------------|-4-------------|-5-----------||
E|------------------|---------------------|---------------|-------------||

e||-----------------|-2---------2---------|-4---x--4----5-|----4---2----||
B||-5-5-5-5-5-5-5-5-|-3-p-2-----3-p-2-----|-5---x--5----5-|----5---3----||
G||-----------------|-------4-2-------4-2-|---------------|-------------||
D||-----------------|---------------------|---------------|-------------||
A||-----------------|---------------------|---------------|-------------||
E||-----------------|---------------------|---------------|-------------||

e||-----------------|---------------------|---------------|-------------||
B||-----------------|---------------------|---------------|-------------||
G||-----------------|---------------------|---------------|-------------||
D||-----------------|---------------------|---------------|-5------7----||
A||-7-7-7-7----7-7--|-2--2--2--2----------|-4-4-4-4-------|-4------5----||
E||-5-5-5-5----5-5--|-0--0--0--0----------|-2-2-2-2-------|-------------||
  P.M...............

e|------------------|---------------------|---------------|--------------|
B|-5-5-5-5-5-5-5-5--|-3--2------3--2------|-5------5f-----|-5f---5---5f--|
G|------------------|------4--2------4--2-|---------------|--------------|
D|------------------|---------------------|---------------|--------------|
A|------------------|---------------------|---------------|--------------|
E|------------------|---------------------|---------------|--------------|
   P.M...............

e|------------------|---------------------|---------------|-5-------4----|
B|------------------|---------------------|---------------|--------------|
G|------------------|---------------------|---------------|--------------|
D|-2----------------|---------------------|---------------|--------------|
A|-0----------------|-2-------------------|-4-------------|--------------|
E|------------------|-0-------------------|-2-------------|--------------|

e|------------------|---------------------|--------------||
B|-5-h-5-p-5-9-9-2--|----2----------------|--------------||
G|------------------|---------2---------2-|-4f------2----||
D|------------------|--------------2-4----|--------------||
A|------------------|---------------------|--------------||
E|------------------|---------------------|--------------||

e|-2*---------------|---------------------|--------------||
B|------------------|---------------------|--------------||*=alargar
G|------------------|---------------------|--------------||  la nota
D|------------------|---------------------|--------------||
A|------------------|---------------------|-5*-----------||
E|------------------|---------------------|--------------||
Este fichero es trabajo propio de su transcriptor y representa su interpretación personal de la canción. El material contenido en esta página es
para exclusivo uso privado, por lo que se prohibe su reproducción o retransmisión, así como su uso para fines comerciales.

© LaCuerda.net · Aviso Legal · Privacidad