Acordes de Guitarra » E »los Estrambóticos » Mi parte viva (Tab)

Mi parte viva
los Estrambóticos

Letras, Acordes y Tabs para Guitarra, Bajo y Ukulele

  •     LA
    ----5------
    ----5------
    ----6------
    ----7------
    ----7------
    ----5------
    
    Intro: Ritmo ska
    
    LA
    
    Dspues se toca esto:
    
    --4-5-------------------
    ------5-6---------------
    ----------6-7-6-7-------
    ------------------7-----
    ------------------------
    ------------------------
    
  • +
    ¡Colabora con nosotros!
    Envíanos tu versión de esta canción

Letra de Mi parte viva
Dspues se toca esto:
Llevo tan poco tiempo en este lugar
las cosa no pesan parece que pueden flotar.
Me monto en el viento y me dejo volar,
es bello el momento al tocar,
sigo volando, me intentas bajar,
el cuento de nunca acabar.
Llevo tan poco tiempo en ese lugar
mi rumbo no es fijo,
eso es lo que quieres cambiar
Me monto en el viento y me dejo llevar,
me sueño viviendo al tocar,
sigo volando , me intentas bajar.
¡Oye tu , que yo no estoy jugando ,
-8-8-8-7-6-7-8-7-6-7-8-6-7-8-6-7--
la musica es mi forma de expresar,
-8-8-8-7-6-7-8-7-6-7-8-6-7-8-6-7--
has perdido el tiempo en estar juzgando,
-8-8-8-7-6-7-8-7-6-7-8-6-7-8-6-7--
y yo no he parado de tocar¡
(EN ESTA PARTE ACORTE LOS TIEMPOS PERO SOLO ES CUESTION
DE IR RAPIDO Y ESCUCHAR LA CANCION ASI TE GUIARAS BIEN)
-5-5-5-5-5-5-5-5--7-7-7-7-7-7-7-7--10-10-10-10-10-10--
Sigo y no entiendo , algo te quieres ocultar,
me sigues mirando,
pensando en que puedo cambiar.
Mejor me levanto y vuelo hacia el mar,
mi vuelo esta en el cantar,
sigo volando, me intentas bajar.
¡Oye tu que yo no estoy jugando,
-8-8-8-7-6-7-8-7-6-7-8-6-7-8-6-7--
la musica es mi forma de expresar,
-8-8-8-7-6-7-8-7-6-7-8-6-7-8-6-7--
vivo en ella , y aunque a veces solo ando ,
-8-8-8-7-6-7-8-7-6-7-8-6-7-8-6-7--
es mi parte viva en este mar...¡
-8-8-8-7-6-7-8-7-6-7-8-6-7-8-6-7--
¡Oye tu que yo no estoy jugando,
-3-3-3-3-3-2-2-2-2-2-3-3-3-3-3-3-5-5-5-5-5-7-7-7-7-7-
la musica es mi forma de expresar,
vivo en ella , y aunque a veces solo ando ,
-3-3-3-3-3-3-2-2-2-2-2-5-5-5-5-5-7-7-7-7-7--
es mi parte viva
es mi parte viva
es mi parte viva
-3-3-3-3-3-3-2-2-2-2-2-2-2-2-0-
es mi parte viva
es mi parte viva
es mi parte viva
es mi parte viva
es mi parte viva
(TERMINAS CON ESTAS NOTAS)
Y eso es todo me costo un wuebo sacar la rola y mas pasarla a
tablaturas pero todo sea por las personas que la pidieron y ademas
la saque por que esta cancion representa mi aficion a la musika y
bueno dejo mi correo por cualquier duda, mentada d madre jaja
felicitacion, abrazoz besos o lo que sea jorge_gp9@hotmail.com
y esto es todo de mi parte cheken mis dems tablaturas y porfavor
califiquen.
SALUD Y SKAAA !!!!!!




[Mi parte viva chords][Mi parte viva cifra]
© LaCuerda.net · aviso legal · privacidad · es · en · pt · contacto
DINAMICO